Guitar Tabs, Chords and Lyrics
Major upgrade!! After one year development the new version of Chordie is now online! Please give feedback.


Promise  Delirious?

********************************************************************
Promise
Album: King of Fools Album
By: deliriou5? (Furious? records)
Transcribed: Elliot Whiting
(Smith)
********************************************************************
Valvey distortion, reduce for verse or play softer so that the signal
breaks up less.
INTRO:
G / Em7#9 / A x4
VERSE:
G /Em(7#9) (Let ring) (A)
[(Em)] [(A)]  
[C] [F] [Em(7#9)]  
(Strike chords once)
[Em7(#9)] [A]  
[Em] [A]  
[C] [F] [Em]  
CHORUS:
[G] [/] [Em7#9] [A]  
[G] [/] [Em7#9] [A]  
[G] [/] [Em7#9] [A] [C]  
VERSE:(Play each note of the chord, upwards)
[Em7] [A]  
[Em7] [A]  
[C] [F] [Em]  
(As before)
CHORUS x2
C ~~~~~~
SOLO: . (with chorus riff)
 
 e -------------------------------------------------------------------
 B -8^-8--5---------8^--8^--5---------8^--8s10s8--5~~~~~--------------
 G -9^-9--6-----7---9^--9^--6---------9^--9s11s9--6~~~~~--------------
 D ---------5h7-------------------9-----------------------10~10~10~10-
 A ---------------------------8h9-------------------------10~10~10~10-
 E -------------------------------------------------------8~~8~~8~~8--

trem pick
,/////////////////, . .
 
 e ---------------------------------------------------- --------
 B ----------------------8^---14-14-14--14/15\14---8^-- Gets --------
 G 10---12---14---10-----9^---15-15-15--15/16\15---9^-- a --------
 D ---------------------------------------------------- bit ---10~~~
 A -8---10---12----8----------------------------------- mushy ---10~~~
 E ---------------------------------------------------- ----8~~~

OUTRO:
[Em] [D] [C#4] [Cdim]  
 
 e --------------- --------------- --------------- ---------------
 B --------------- --------------- --------------- ---------------
 G -----0----0---- -----0----0---- -----0----0---- ----0-----0----
 D ---4----4----4- ---4----4----4- ---4----4----4- ---4----4----4- x3
 A -7----7----7--- -5----5----5--- -4----4----4--- -3----3----3---
 E --------------- --------------- --------------- --------------- 

Last time: Slow down
Em D C#4 ,.........,Cdim
 
 e ----------------- ----------------- ----------------- --------
 B ----------------- ----------------- ----------------- --------
 G -----0-----0----- -----0-----0----- -----0-----0----- --------
 D ---4-----4-----4- ---4-----4-----4- ---4-----4-----4- ---4~~--
 A -7-----7-----7--- -5-----5-----5--- -4-----4-----4--- ---3~~--
 E ----------------- ----------------- ----------------- -------- 


Important: The song above is NOT stored on the Chordie server. The original song is hosted at www.christianguitar.org. Chordie works as a search engine and provides on-the-fly formatting. Chordie does not index songs against artists'/composers' will. To remove this song please click here.

Text color:
Chord color:
Chord grids: 
Font size:    
Page size: 

A C C#4 Cdim D Em Em7 F G
Rate #3 of 12 versions

Jango Player

Login - add to songbook

SHARE PAGE  



You need to log in to post comments