Guitar Tabs, Chords and Lyrics
Major upgrade!! After one year development the new version of Chordie is now online! Please give feedback.


Need You Now  Chris Tomlin

Chris Tomlin and Jack Parker
Tabbed by: Chad C.
This tab is complete and more detailed than the version that already exists.
Intro:
[C] 3x[Am]
 
 E--------------0--- -----------0------
 B---------1----1--- -----------1------
 G-------0---0--0--- -----------2------
 D---2h3--------2--- ---2h3--2--2------
 A--------------3--- -----------0------
 E------------------ ------------------ 

Verse:
[C] 3x[Am] [C] [Am]
 
 E------------------ --------------0---- ------------------ --------------0---
 B---------1----1--- ---------1----1---- ---------1----1--- ---------1----1---
 G-------0---0--0--- -------0------2---- -------0---0--0--- -------0------2---
 D---2h3--------2--- ---2h3--------2---- ---2h3--------2--- ---2h3--------2---
 A--------------3--- --------------0---- --------------3--- --------------0---
 E------------------ ------------------- ------------------ ------------------ 

[C] [G] [G] [G] [C] [Am] 
 
 E------------------ -----3--3--3-- ----------------- -----------0--
 B---------1----1--- -----3--3--3-- ---------1----1-- -----------1--
 G-------0---0--0--- -----0--0--0-- -------0---0--0-- -----------2--
 D---2h3--------2--- -----0--0--0-- ---2h3--------2-- ---2h3--2--2--
 A--------------3--- -----2--2--2-- --------------3-- -----------0--
 E------------------ -----3--3--3-- ----------------- -------------- 

Chorus:
(you just play the following chords for the chorus, you could get the
lead guitar to play the keyboard riffs in the song to make it sound better)
[F] [Am7]  
 
 E----1--- ---3---
 B----1--- ---1---
 G----2--- ---2---
 D----3--- ---2---
 A----3--- ---0---
 E----1--- ------- 

[F] [Am7]  
[F] [Am7]  
[F] [Am7]  
[F] [Am7]  
Verse:
[C] 3x[Am] [C] [Am]
 
 E------------------ --------------0---- ------------------ --------------0---
 B---------1----1--- ---------1----1---- ---------1----1--- ---------1----1---
 G-------0---0--0--- -------0------2---- -------0---0--0--- -------0------2---
 D---2h3--------2--- ---2h3--------2---- ---2h3--------2--- ---2h3--------2---
 A--------------3--- --------------0---- --------------3--- --------------0---
 E------------------ ------------------- ------------------ ------------------ 

[C] [G]  
 
 E------------------ -3-3-3-3-3-3-3-3--
 B---------1----1--- -3-3-3-3-3-3-3-3--
 G-------0---0--0--- -0-0-0-0-0-0-0-0--
 D---2h3--------2--- -0-0-0-0-0-0-0-0--
 A--------------3--- -2-2-2-2-2-2-2-2--
 E------------------ -3-3-3-3-3-3-3-3-- 

Chorus:
[F] [Am7]  
 
 E----1--- ---3---
 B----1--- ---1---
 G----2--- ---2---
 D----3--- ---2---
 A----3--- ---0---
 E----1--- ------- 

[F] [Am7]  
[F] [Am7]  
[F] [Am7]  
[F] [Am7]  
Bridge:
[Am] [G]  
[Am] [G]  
[Am] [G]  
[Am] [G]  
Intro:
Chorus:
Chorus:
Intro: (Ending)
Comments: Chris performs this song with an acoustic guitar, electric
guitar(clean and distorted), keyboard, bass, and drums. enjoy

Important: The song above is NOT stored on the Chordie server. The original song is hosted at www.christianguitar.org. Chordie works as a search engine and provides on-the-fly formatting. Chordie does not index songs against artists'/composers' will. To remove this song please click here.

Text color:
Chord color:
Chord grids: 
Font size:    
Page size: 

Am Am7 C F G
Rate #1 of 3 versions

Jango Player

Login - add to songbook

SHARE PAGE  



You need to log in to post comments