Guitar Tabs, Chords and Lyrics
Server problems seems to be fixed. Chordie has been experiencing problems with songs disappearing. These issues now seems to be fixed, but still verifying the fix. If you find anything strange, please email admin@chordie.com.


Mood Rings  Relient K

Copyright Gotee Records 2003
Tabbed by Johnny Betancourt
Hey everybody, I'm pretty sure that these are the most comprehensive
tabs and chords out there for this song, so I hope you guys enjoy it!
E-mail me at Jnnybgd86@aol.com if you have any suggestions, or if you
just want to complement me for my hard work! Remember, don't settle for
second best!
Johnny
Chords needed:
[F#m]C#m [-244222]-x46654
[Abm]B [-466444]-799877
[A]E [-577655]-079900
Emaj7\D#-x69800
[C#m]Cmaj7 [-9]-8 [11]10 [11]10 [999]988
1st verse
 
 E-----------------------------------------------------------------------
 B----------------------------------------9----9-----------7-------7-----
 G--8----1----1---------4-----4------8----9----9-------7-------8---------
 D--9----2----2-------4-----1--------9----6----6-------------------------
 A--7---------0-----2----------------7---------0-----9-------------------
 E-----------------------------------------------------------------------

Can I construct...
F#m....C#m,Abm,B.....
Let's get...
A B E Emaj7\D#
A B E Emaj7\D#
A B..
She's so pretty, but..
[E] [B] [A] [B]  
[E] [B] [A] [B]  
[E] [B] [A] [B]  
[E] [B] [A] [B]  
Verse 2
Same tabs as verse 1
Can I construct...
F#m....C#m,Abm,B....
Let's get...
A B E Emaj7\D#
A B E Emaj7\D#
A B...
She's so pretty, but...
[E] [B] [A] [B]  
[E] [B] [A] [B]  
[E] [B] [A] [B]  
[E]E, B[B], [A]A,[B] C#m,B
E, B, A, Cmaj7
E, B, A, C#m,B
E, B, A, Cmaj7
And when it's green...
 
 E-----------------------------------------------------------------------
 B-----------------------------------------------------------------------
 G-----------------------------------------------------------------------
 D----6-6-4-4----2-2-6-6-4-4-4-------6-6-4-4----2-2-2-2-2-2-2-2----------
 A----7-7-6-6----4-4-7-7-6-6-6-------7-7-6-6----4-4-4-4-4-4-4-4----------
 E-----------------------------------------------------------------------

And that's all right...
C#m, B, A...
Verse 3
Same tabs as verse 1
Mood Ring, Oh Mood Ring.... (Fingerpicking is necessary)
 
 E-----------------------------------------------------
 B--9------9-----7------7-----5------5-----8-------8---
 G------9-------------8------------6-------------9-----
 D------------------9------------7------------10-------
 A--7--------------------------------------------------
 E---------------7------------5------------8-----------
 E-----------------------------------------------------
 B---------------7------7-----5------5-----8-----8-----
 G--9-----9-----------8------------6-----------9-------
 D------11----------9------------7-----------10--------
 A----11-----------------------------------------------
 E--9------------7------------5------------8----------- REPEAT

^^^^^^^^^^^^
Lightly Strum 2nd time

Important: The song above is NOT stored on the Chordie server. The original song is hosted at www.christianguitar.org. Chordie works as a search engine and provides on-the-fly formatting. Chordie does not index songs against artists'/composers' will. To remove this song please click here.

Text color:
Chord color:
Chord grids: 
Font size:    
Page size: 

A Abm B C#m E F#m
Rate #1 of 9 versions

Jango Player

Login - add to songbook

SHARE PAGE  



You need to log in to post comments