Guitar Tabs, Chords and Lyrics
Server problems seems to be fixed. Chordie has been experiencing problems with songs disappearing. These issues now seems to be fixed, but still verifying the fix. If you find anything strange, please email admin@chordie.com.


Hoopes I Did It Again  Relient K

Song: Hoopes I Did It Again
Artist: Relient K
CD: Two Lefts Dont Make a Right, But Three do...
Written by: Matthew Thiessen
Copyright: 2003 Gotee Music
Tabbed by: Extreme_je5u5freak@yahoo.com
Intro:
[A]  
 
 e -----------------------------------------------------------------------
 b ----------------------------------------10----9-----8-----9------------
 g -----7-----------------------------------------------------------------
 d -----7-------hold for awhile------------7-----6-----4-----6------------
 a -----5-----------------------------------------------------------------
 E -----------------------------------------------------------------------

Verse: Mostly bass but there is a quiet clean guitar in the background
doing this repeatedly i believe...
 
 e --------------------------------------------
 b ---------------10----9----------------------
 g ------------9--------------9----------------
 d --------7-----------------------------------
 a --------------------------------------------
 E --------------------------------------------

Part2Verse:
[D] / [D]P.m........[E]..........[A].........[G]...........\[A]
 
 e ---------- ------------------------------------------ -----------
 b -----------------------------------------------------------------
 g ----7-------7----------9-----------------------------------------
 d ----7-------7-x6-------9--x8-----7--------5-5-5-5-----7--7-------
 a ----5-------5----------7---------7--x8----5-5-5-5-----7--7-------
 E ---------------------------------5--------3-3-3-3-----5--5-------

Part2Verse:
[D] /[D] P.m...............[E].........[A].........[G].....\[D] [E]
 
 e ---------- ------------------------------------------ -------------------
 b -------------------------------------------------------------------------
 g ----7------7-7-7-7-7-7--------9--------------------------7-------9-------
 d ----7------7-7-7-7-7-7--------9--x8----7--------5--------7-x8----9--x8---
 a ----5------5-5-5-5-5-5--------7--------7--x8----5-x8-----5-------7-------
 E ---------------------------------------5--------3------------------------

PreChourus: The hardest part to figure out.
this is, sort of, an off sounding
chord but I tried to match
it as close as i could. Try either one Play this fast...n...play it twice
 
 e ---------------------------------------------------------------------------
 b ----2-------2--------------------------------------------------------------
 g ----2--or---2--------------------------------------------------------------
 d ----2-------x------play offbeat 4 times------------------------------------
 a ------------4--------------------------------0---5\4---2---h4--p2---0--0---
 E ---------------------------------------------------------------------------

Chorus: Play 8 times each
[A] [E] [D] [E] [A] [E] [D] [E] [E]  
 
 e --------------------------------------------------------------------------
 b --------------------------------------------------------------------------
 g --------------9------7-------9---------------9-------7-------9------------
 d-------7-------9------7-------9-------7-------9-------7-------9------------
 a ------7-------7------5-------7-------7-------7-------5-------7------------
 E ------5------------------------------5------------------------------------

Go immediately to intro and play everything again.
**********************************************************
Then there is a bass solo
Outro:
hold 1st 2 chords for 8 beats, rest 8, then play\
[A] [F#] [E] [G]  
 
 e -----------------------------------------------------------------------
 b -----------------------------------------------------------------------
 g -----------------------------------------------9---9---9---------------
 d ----7--------4---------------------------------9---9---9------5-5-5----
 a ----7--------4---------------------------------7---7---7------5-5-5----
 E ----5--------2------------------------------------------------3-3-3----

Outro:
[A] [F#] [D] [E] [G]  
 
 e ---------------------------------------------------------------
 b ----------------------------------------------------------------
 g --------------------------7-----------9------------------------
 d ----7----------4-----------7--x8-------9--x5-----5-------------- Play twice
 a ----7--x8------4--x8-------5-----------7---------5--x3----------
 E ----5----------2---------------------------------3--------------

end with Chord "A"
If you have any suggestions of how i could fix the tab please tell me.
I am pretty confident that the whole song is accurate but that one chord
is a hard one! Tell me if you have some other chord suggestions. Thanks!
HaVe FuN,
God bless,
Mike

Important: The song above is NOT stored on the Chordie server. The original song is hosted at www.christianguitar.org. Chordie works as a search engine and provides on-the-fly formatting. Chordie does not index songs against artists'/composers' will. To remove this song please click here.

Text color:
Chord color:
Chord grids: 
Font size:    
Page size: 

A D E F# G
Rate #1 of 1 versions

Login - add to songbook

SHARE PAGE  




You need to log in to post comments