Guitar Tabs, Chords and Lyrics
Server problems seems to be fixed. Chordie has been experiencing problems with songs disappearing. These issues now seems to be fixed, but still verifying the fix. If you find anything strange, please email admin@chordie.com.


Neighborhoods  Big Daddy Weave

Song: Neighborhoods
CD: One and Only
tab by: Andre AKA TallBassPlyr
Verse: The Rhythm is very tricky, if you listen to the song, a lot, you
should get it fairly easy though. Sing the words then the guitar plays
Verse:
[Am7]Am7 [Bm7]Bm7 [Am7]Am7 [C#m7]C#m7 [Am7]Am7 (x2)
Chorus:
[G] [D] [A]  
[G] [D] [A]  
[Bm] [G]  
Little lick after chorus:
 
 --------------------------------------
 --------------------------------------
 --------------------------------------
 --------------7--4-5-4----------------
 ------4--7--5----------7--5-----------
 --5h7-------------------------3--4--5-

Jam Session: x4
 
 --5--7--5--------------------------------
 --5--7--5--I have no idea what he plays--
 --5--7--5--here, i just mess around on---
 --5--7--5--the 5 and 7's-----------------
 -----------------------------------------
 -----------------------------------------

Order:
Intro
Verse
Chorus
Verse
Chorus
Jam
Chorus
Be sure to use these chords for the verse or it won't be right
Am7: xx5555
Bm7: xx7777
C#m7:xx9999

Important: The song above is NOT stored on the Chordie server. The original song is hosted at www.christianguitar.org. Chordie works as a search engine and provides on-the-fly formatting. Chordie does not index songs against artists'/composers' will. To remove this song please click here.

Text color:
Chord color:
Chord grids: 
Font size:    
Page size: 

A Am7 Bm Bm7 C#m7 D G
Rate #1 of 1 versions

Jango Player

Login - add to songbook

SHARE PAGE  




You need to log in to post comments