Guitar Tabs, Chords and Lyrics
Server problems seems to be fixed. Chordie has been experiencing problems with songs disappearing. These issues now seems to be fixed, but still verifying the fix. If you find anything strange, please email admin@chordie.com.


Left Out Cold  Dogwood

Written by: Josh Kemble and Sean O'Donnell
Copyright: 1999 Thirsty Moon River Publishing (ASCAP)
and 1999 Crazy Breacher Music (ASCAP)
Notes: *means high chord, "means octave chord, ""means high
octave chord, means vibrato, ^means quick bend, /means
slide, on lines 4 and 5 of second verse guitar 1 is top line
and guitar 2 is bottom line
Intro: C*" A#" A" A#" C*" A#" A" A#" D#" A#" A" G" (x2)
A#(pm)
A# D#...
What happened now?
 
 B- ---8-----
 G- -----...8 A- ---8-----
 D- -8------- E- -8---8... 

Excuse of why we can't move away.
 
 A- ------5...
 E- -10/3---- 

Taken from the box.
 
 G- ---10------
 D- -8----10... 

Skimmed over the top.
 
 B- ---8-----
 G- -----...8
 D- -8------- 

Trust is of the past.
 
 A- ---8----- 

E- -8---8... (pick slide)A#
Friendships never last.
[A#]Nob[D]od[C]y w[D]ins[C] in a r[D]ace [C]against d[D#]efeat.
D# D A# A#(pm) A# A#(pm) A#
You conquered our beliefs with words of deceit.
A# F* D C D C
Harbored animosity
[D#]engulfing our [D]desires to forgive[C].[A#] [G] [A#] [A] [A#]
(Chorus)
[A#]Now fear's swept a[D#]way.
G G(pm)
I have nothing left to say.
G G(pm) D#
I choose Heaven over death,
simple as [A#]breath.
D#"
My God has taken charge,
D" G G(pm)
my past has left me scarred.
G G(pm) D#...
Left out cold.
A#...
D...
There was a place
 
 B- -8----- 

G- ---8...
we all knew where
A#"
we could get along.
G(pm)A# G(pm)A# G(pm)A#(pm) D A#(pm) D A#(pm)
G(pm) A#(pm)
No one stabbed another brother.
A#(pm) D# A#(pm)D# A#(pm)G(pm)A# G(pm) A# G(pm)
D#(pm) D(pm)
We could re- -ly on each other.
G(pm) D C D C
The virtues we all shared,
no [D]other [C]time [D#]compares.[D]
G G(pm)
How could we
G G(pm) A#
have let you get away?
A# F* D C D C
Harbored animosity
[D#]engulfing our [D]desires to forgive[C].[A#] [G] [A#] [A] [A#]
(Chorus)
[A#]Now fear's swept a[D#]way.
G G(pm)
I have nothing left to say.
G G(pm) D#
I choose Heaven over death,
simple as [A#]breath.
D#"
My God has taken charge,
D" G G(pm)
my past has left me scarred.
G G(pm) D#...
Left out cold.
 
 e- ---------------------------------------------------------------
 B- -------------------------------------------------8^------------
 G- -----------------------------------------8-7---7-----7----10-8-
 D- -8---------10-8-7-10-8-8-7-----------8------8----------------
 A- -------8-8-8--------------------------------8-----8------------
 E- ---------------------------------------------------------------
 e- -------------------------------------------------10-8-10-11-10-
 B- --------------8^-----------------------------------------------
 G- -10-8-10------10-8--A#"" C#""----------------------------------
 D- ---------------------------------------------------------------
 A- ---------------------------------------------------------------
 E- ---------------------------------------------------------------
 e- -8-10-8----------------------------------------------
 B- -----------------------------------------------------
 G- -----------------------------------7-------7-10-8-7--
 D- ------------------7-8-7-8-10----10-----------------8-
 A- -------------10--------------------------------------
 E- ----------------------------------------------------- 

(Chorus)
[A#]Now fear's swept a[D#]way.
G G(pm)
I have nothing left to say.
G G(pm) D#
I choose Heaven over death,
simple as [A#]breath.
D#"
My God has taken charge,
D" G G(pm)
my past has left me scarred.
G G(pm) D# D#(pm) D# D#(pm)
Left out cold.
G G(pm) D# D#(pm) D# D#(pm)
Left out cold.
G" F" G" A#" G" A#" D"/D#"/D"

Important: The song above is NOT stored on the Chordie server. The original song is hosted at www.christianguitar.org. Chordie works as a search engine and provides on-the-fly formatting. Chordie does not index songs against artists'/composers' will. To remove this song please click here.

Text color:
Chord color:
Chord grids: 
Font size:    
Page size: 

A A# C D D# G
Rate #1 of 1 versions

Jango Player

Login - add to songbook

SHARE PAGE  




You need to log in to post comments