Guitar Tabs, Chords and Lyrics
Update 25:10. 13:00. Site is back up running again. Songbooks are recovered. Woring on getting search back up..


Reservoir of Soul  Dime Store Prophets

Song: Reservoir of Soul
Band: Dime Store Prophets
Album: Love is Against the Grain
Author: roguenine19@hotmail.com
Intro
[C] [F]  
Verse
E---0h2p0-
 
 B-3-------
 G-2------

G-0-0p2h0-(Once every two lines)
 
 D--0------

Chorus
[F#m]  
[Gm]  
[Asus2] [Dsus2] [Asus2] [Dsus]  
[Asus2] [Dsus2] [Asus2] [Dsus]  
Bridge
 
 E--0--0-0-0--2--2-2-2--3--2-2--0--2-2-2----
 B--3--3-3-3--3--3-3-3-3-3-3--3--3-3-3----
 G--2--2-2-2--2--2-2-2-2-2-2--2--2-2-2----
 D------------------------------------------
 A------------------------------------------
 E------------------------------------------

Last part of bridge: C G
Outro: Verse once then C G
Chords:
 
 E------0----0------2-----3------0----2------3-----0-----3---------
 B------1----1------2-----3------0----3------3-----3-----0---------
 G------0----2------2-----3------2----2------2-----2-----0---------
 D------2----3------4-----5------2----0------0-----0-----x---------
 A------3----x------4-----5------0----x------x-----x-----2---------
 E------x----x------2-----3------0----x------x-----x-----3---------

[C] [F] [F#m] [Gm] [Asus2] [D] [Dsus] [Dsus2] [G] 

Important: The song above is NOT stored on the Chordie server. The original song is hosted at www.christianguitar.org. Chordie works as a search engine and provides on-the-fly formatting. Chordie does not index songs against artists'/composers' will. To remove this song please click here.

Text color:
Chord color:
Chord grids: 
Font size:    
Page size: 

Asus2 C D Dsus Dsus2 F F#m G Gm
Rate #1 of 1 versions

Login - add to songbook

SHARE PAGE  



You need to log in to post comments