Guitar Tabs, Chords and Lyrics
Update 25:10. 13:00. Site is back up running again. Songbooks are recovered. Woring on getting search back up..


Infected  Demon Hunter

Solid State Records
Tabbed by sevensystem
* * * * * * *
Drop C Tuned Guitar
[D]  
[A]  
[F]  
[C]  
[G]  
[C]  
INTRO
 
 D------------------ REAPEAT 4x
 A------------------
 F ------------------
 C -3-3-3-3----------
 G -1-1-1-1--1-3-1-0-
 C ----------1-3-1-0-

VERSE
 
 D---------------- REAPEAT
 A----------------
 F ----------------
 C -3--------------
 G -1--1-0-1-3-1-0-
 C ----1-0-1-3-1-0-

PRE CHORUS
 
 D---------------- REAPEAT
 A----------------
 F ----------------
 C -6--1------6--1-
 G -6--1------6--1-
 C -6--1------6--1-

CHORUS
 
 D--------------------------------------------------------------- REAPEAT
 A---------------------------------------------------------------
 F ---------------------------------------------------------------
 C -------8----------------8---------------4--------------4-------
 G -6--6-----6-------6--6-----6------4--4----4------4--4----4-----
 C -6----------6-----6-----------6---4----------4---4----------4--

BREAKDOWN PART 1
 
 D-------------------- REAPEAT
 A--------------------
 F --------2-----------
 C -1----------2-------
 G -1--------------3---
 C -1------------------

BREAKDOWN PART 2
 
 D-------------------- REAPEAT
 A--------------------
 F ----------------2-----------
 C -1----1-1-1--------2--------
 G -1----1-1-1-----------3-----
 C -1----1-1-1-----------------


Important: The song above is NOT stored on the Chordie server. The original song is hosted at www.christianguitar.org. Chordie works as a search engine and provides on-the-fly formatting. Chordie does not index songs against artists'/composers' will. To remove this song please click here.

Text color:
Chord color:
Chord grids: 
Font size:    
Page size: 

A C D F G
Rate #1 of 1 versions

Jango Player

Login - add to songbook

SHARE PAGE  




You need to log in to post comments