Guitar Tabs, Chords and Lyrics
Server problems seems to be fixed. Chordie has been experiencing problems with songs disappearing. These issues now seems to be fixed, but still verifying the fix. If you find anything strange, please email admin@chordie.com.


Broken   12 Stones

 
 d------------------------------------!-------
 A-------5-5---55-5-------------------!-------
 F-------4-4---44-4-5/7-5-5--555/7-7--!-------
 C-x-----2-2-x-22-2-5/7-5-5--555/7-7--!-------
 G-x-4x--2-2-x-22-2-3/5-3-3--333/5-5--!-------
 D-x-----0-0-x-00-0-------------------!2*and3*

 


 now your thinking theres more mutes than that, your right, there are so


 just figure out where they are and there are harmonics(*)used also i think


 they use these harmonics above, so figure out where there go in the course


 


 Verse


 

 
 d----------------------------------------------------------------
 A----------------------------------------------------------------
 F---4--------------------------------4---------------------------
 C--5-5--2-5-5-2-5-5---2-5---2-5-5---5-5--2-5-5-2-5-5--2-5----55--
 G-------------------3------3-------------------------3----3/5----
 D-O--------------------------------0-----------------------------

 


 I'm not sure how he REALLY does the verse, but this seems totally right


 


 Bridge


 

 
 d-----------------------------------------------------
 A-----------------------------------------------------
 F------12-12-12-12-12/16-------12-12-11-11-11-11-9-9--
 C-2-2--x--x--x--x--x--x---5-5--x--x--x--x--x--x--x-x--
 G-2-2--10-10-10-10-10/14--5-5--10-10-9--9--9--9--7-7--
 D-0-0---------------------3-3-------------------------

 


 


 chord be hind solo is...LET RING


 [d-----]  


 [A-----]  


 [F--5--]  


 [C--5--]  


 [G--3--]  


 [D-----]  


 Solo(PM........)


 

 
 d-----------------------------------------------------------------------------
 A-----------------------------------------------------------------------------
 F-----------------------------------------------------------------------------
 C--------------------------------------------------------12-12-10-10-9-9-10-10
 G-----10-10-9-9-10-10-12-12-10-10-9-9-----10-10-9-9-10-10---------------------
 D--00--------------------------------12-12------------------------------------

 


 pm............................................................................


 

 
 d-----------------------------------------------------------------------------
 A-----------------------------------------------------------------------------
 F-----------------------------------------------------------------------------
 C--------------------------------------------------------12-12-10-10-9-9-10-10
 G-----10-10-9-9-10-10-12-12-10-10-9-9-----10-10-9-9-10-10---------------------
 D--00--------------------------------12-12------------------------------------

 


 .........................................................


 

 
 d-----------------------------------------------------------------------------
 A-----------------------------------------------------------------------------
 F-----------------------------------------------------------------------------
 C--------------------------------------------------------12-12-10-10-9-9-10-10
 G-----10-10-9-9-10-10-12-12-10-10-9-9-----10-10-9-9-10-10---------------------
 D--00--------------------------------12-12------------------------------------
 d-----------------------------------------------------------------------------
 A-----------------------------------------------------------------------------
 F-----------------------------------------------------------------------------
 C--------------------------------------------------------10-10-10-10-10b10b10b
 G-----10-10-9-9-10-10-12-12-10-10-9-9-----10-10-9-9-10-10---------------------
 D--00--------------------------------12-12------------------------------------


Important: The song above is NOT stored on the Chordie server. The original song is hosted at www.christianguitar.org. Chordie works as a search engine and provides on-the-fly formatting. Chordie does not index songs against artists'/composers' will. To remove this song please click here.

This song is displayed as text-only. Transposing and tuning is only available for chordpro-songs.
Rate #1 of 6 versions

Jango Player

Login - add to songbook

SHARE PAGE  




You need to log in to post comments