Guitar Tabs, Chords and Lyrics
Server problems seems to be fixed. Chordie has been experiencing problems with songs disappearing. These issues now seems to be fixed, but still verifying the fix. If you find anything strange, please email admin@chordie.com.


All About Love  Steven Curtis Chapman

Song: All About Love
Album: All About Love
Music: Steven Curtis Chapman
Lyrics: Steven Curtis Chapman
Producers: Mary Beth Chapman and Brown Bannister
In honor of upcoming Valentine’s Day, I figured, “Eh, what the heck? Why
not do a love song tabbing?” So, without further adieux, here is what I
think I’ve figured out to be at least pretty close. I’ve had the pleasure
of being on a TV studio set live and watching Steven perform this about a
year ago, and this is what he appeared to be playing. So, this is all
based on that. I’ll put the translation of the chords at the bottom so
you’ll know what in the heck I’m talking about. If you have any questions,
feel free to e-mail me at strumminminister@yahoo.com or I’m known as
SCCdcTFreak on CGR.
Enjoy,
† < Stephen
Intro:
 
 -------0----0----0--------0-----0----- ----0-----0-----0----------0-----0-----
 -------0----0----0--------0-----0----- ----0-----0-----0----------0-----0-----
 -------4----6----7--------8-----8----- ----9-----8-----9----------11----11----
 -------4----6----7--------9-----9----- ----9-----9-----9----------11----11----
 -------2----4----5--------7-----7----- ----7-----7-----7----------9-----9-----
 -------0----0----0--------0-----0----- ----0-----0-----0----------0-----0-----
 -------0----0----0--------0-----0----- 0------0---0------0---0---0-----0--0---
 -------4----6----7--------8-----8----- 9------9---8------9---8---9----11--11--
 -------4----6----7--------9-----9----- 9------9---9------9---9---9----11--11--
 -------2----4----5--------7-----7----- 7------7---7------7---7---7-----9---9--
 -------0----0----0--------0-----0----- 0------0---0------0---0---0-----0---0--
 -------0----0----0--------0-----0----- 0------0---0------0---0---0-----0---0-- 

Play intro four times, but on the final time, leave off the final chord
that repeats (E 6/9).
Verses: (Palm muted)
[E5] [Emaj7] [E5] [Esus4]  
[E5] [Emaj7] [E5] [Esus4]  
[Cmaj7] [E7sus4] [Cmaj7] [E7sus4]  
Chorus: (not muted)
[Emaj7]L . . . L . . . [E6]L . . . L . . . [Esus2]L . . .
[Emaj7] [E6] [Esus4]  
[Emaj7] [Esus4] [Emaj7] [Esus4] 
(play intro again)
(verse)
(chorus)
Bridge:
[E5] [Emaj7] [E7sus4] [Esus2]  
[E7sus4] [E5] [E] [6/9] [E5]  
[E5] [E6/9] [F5]  
A Capella and then jump in mid-chorus – finish the chorus and then play
the intro repeatedly several times over.
Chords:
E5 – 079900 Emaj7 – 079800 Esus4 – 009900 Cmaj7 – 035500
E7sus4 – 057700 E6 – 046600 Esus2 – 024400 E 6/9 – 09(11)(11)00
F5 – x8(10)(10)xx

Important: The song above is NOT stored on the Chordie server. The original song is hosted at www.christianguitar.org. Chordie works as a search engine and provides on-the-fly formatting. Chordie does not index songs against artists'/composers' will. To remove this song please click here.

Text color:
Chord color:
Chord grids: 
Font size:    
Page size: 

Cmaj7 E E5 E6 E6/9 E7sus4 Emaj7 Esus2 Esus4 F5
Rate #1 of 1 versions

Login - add to songbook

SHARE PAGE  




You need to log in to post comments