Guitar Tabs, Chords and Lyrics
Server problems seems to be fixed. Chordie has been experiencing problems with songs disappearing. These issues now seems to be fixed, but still verifying the fix. If you find anything strange, please email admin@chordie.com.


Trademark  Relient K

Entire song played in Drop-D; written my Matt Thiessen, Copywright 2003
Gotee Records.
* = palm mute
/ = slide
+ = let ring
\ = release strings
Part 1: Intro (play 8x):
 
 e --------------------------------------------------------
 B --------------------------------------------------------
 G ---2-2-/-4-2-------2-2-/-4-2------2-2-/-1-1----2-2-/-1-1
 D 4-4-------------4-4------------0-0----------0—0---------
 A 4-4-------------4-4------------0-0----------0-0---------
 D 4-4-------------4-4------------0-0----------0-0--------- 

Part 2: After Intro, Guitar 2 plays:
[A]  
 
 e --------------------------------------------------------
 B -2+++++++++++++-----------------------------------------
 G -2+++++++++++++-----------------------------------------
 D -2+++++++++++++-----------------------------------------
 A --------------------------------------------------------
 D -------------------------------------------------------- 

Part 2: While Guitar 1 plays (2x):
 
 e --------------------------------------------------------
 B -----------------3-3-3-2--------------------------------
 G -2*2*-2-2-2-4-4-4---------4*4*-4-4-4-2--4-4-4-1---------
 D --------------------------------------------------------
 A --------------------------------------------------------
 D -------------------------------------------------------- 

Part 3: Verse (2x):
 
 e --------------------------------------------------------
 B --------------------------------------------------------
 G -2—-2*---9--9*---11---11*-------------------------------
 D -2--2*---9--9*---11---11*-------------------------------
 A -0—-0*---7--7*---9----9*--------------------------------
 D -------------------------------------------------------- 

Am 16x E 16x F# 16x(approx)
Part 4: Pre-Chorus (2x):
 
 e --------------------------------------------------------
 B ------------------------------------------------2+++----
 G ---------------------------after-second-time...-2+++----
 D -4-4\--4-4-4\-4-7++-0++-2++---------------------2+++----
 A -4-4\--4-4-4\-4-7++-0++-2++-----------------------------
 D -4-4\--4-4-4\-4-7++-0++-2++----------------------------- 

[F#] [B] [D#] [E] [A] 
Part 5: Chorus (2x):
 
 e ------2-------------------------------------------------
 B -2----3-------------------------------------------------
 G -2----2-------------------------------------------------
 D -2------------------------------------------------------
 A --------------------------------------------------------
 D -------------------------------------------------------- 

A D (play each chord for 2 measures (8 beats)
Part 6: Post-Chorus:
 
 e --------------------------------------------------------
 B -2*-2*-2—-----------------------------------------------
 G --------------------------------------------------------
 D --------------------------------------------------------
 A --------------------------------------------------------
 D -------------------------------------------------------- 

(listen to the song to get the exact rhythm/time)
Part 7: Then…
 
 e --------------------------------------------------------
 B --------------------------------------------------------
 G -7-7\-7--7-7\--7--7-7\----------------------------------
 D -7-7\-7--7-7\--7--7-7\--0-/-4---------------------------
 A -5-5\-5--5-5\--5--5-5\--0-/-4---------------------------
 D ------------------------0-/-4--------------------------- 

(After 0, slide down to 4 and repeat the intro)
Part 8: Riff 3 (4x):
 
 e --------------------------------------------------------
 B --------------------------------------------------------
 G -7-6-/-4-/-2-2-/-4--------------------------------------
 D -------------------4-/-2--------------------------------
 A --------------------------------------------------------
 D -------------------------------------------------------- 

Part 9: Near Ending (2x):
 
 e --------------------------------------------------------
 B --------------------------------------------------------
 G -7\-7\--6\-6\--4\-4\--2\-2\-----------------------------
 D -7\-7\--6\-6\--4\-4\--2\-2\-----------------------------
 A -5\-5\--4\-4\--2\-2\--0\-0\-----------------------------
 D -------------------------------------------------------- 

Order:
Part 1
Part 2
Part 3
Part 4
Part 5
Part 6
Part 7
Part 1
Part 2
Part 3
Part 4
Part 5
Part 6
Part 7
Part 8
Part 5 (2x)
Part 9
Part 7
Part 8
 
 End on A: e ------ 

[B] [--2++-]  
[G] [--2++-]  
[D] [--2++-]  
 
 A ------
 D ------ 


Important: The song above is NOT stored on the Chordie server. The original song is hosted at www.christianguitar.org. Chordie works as a search engine and provides on-the-fly formatting. Chordie does not index songs against artists'/composers' will. To remove this song please click here.

Text color:
Chord color:
Chord grids: 
Font size:    
Page size: 

A B D D# E F# G
Rate #1 of 1 versions

Jango Player

Login - add to songbook

SHARE PAGE  




You need to log in to post comments