Guitar Tabs, Chords and Lyrics
Update 25:10. 13:00. Site is back up running again. Songbooks are recovered. Woring on getting search back up..


Bittersweet  Falling Up

Drop D Tuning D-A-D-G-B-E
P.M....etc.=Palm mute
Intro
D[-9009009009009-9-]
A[-9009009009009-9-]x4
D[-9009009009009-9-]
P.M........................
Then
 
 D[-009009009009-9-7--7--4-4-4--7-7-7-7-7-7-7-7----3-2-]
 A[-009009009009-9-7--7--2-2-2--5-5-5-5-5-5-5-5----3-2-]
 D[-009009009009-9-7--7--2-2-2--5-5-5-5-5-5-5-5----3-2-]

Verse
 
 B[----------8-7-0---------]
 G[------------------------]
 D[-9-9-9-9----------9--9-]x4 [-4-]
 A[-9-9-9-9----------9--9-]Then [-2-](this aligning got messed up some how)
 D[-9-9-9-9----------9--9-] [-2-]

Repeat Verse
Then...
 
 D[-7-7-7-7-7-7-7-7-]
 A[-5-5-5-5-7-7-7-7-]
 D[-5-5-5-5-7-7-7-7-]

Chorus
 
 D[-009009009009-9-7--7--4-4-4--7-7-7-7-7-7-7-7-]
 A[-009009009009-9-7--7--2-2-2--5-5-5-5-5-5-5-5-]x2
 D[-009009009009-9-7--7--2-2-2--5-5-5-5-5-5-5-5-]

Verse 2
(Same as Verse 1)
Chorus
Intro
Bridge
(Acoustic)
[G](D[A]istortion)
 
 D[-7-7-7-7-7-7-7-7-]
 A[-5-5-5-5-7-7-7-7-]x3
 D[-5-5-5-5-7-7-7-7-]

Then...
 
 G[------10-----11--]
 D[-3s750--3s750----]
 A[-3s750--3s750----]x4?
 D[-3s750--3s750----]

Chorus
2004 BEC Recordings.
Tabbed by Adam K.

Important: The song above is NOT stored on the Chordie server. The original song is hosted at www.christianguitar.org. Chordie works as a search engine and provides on-the-fly formatting. Chordie does not index songs against artists'/composers' will. To remove this song please click here.

Text color:
Chord color:
Chord grids: 
Font size:    
Page size: 

A G
Rate #1 of 5 versions

Jango Player

Login - add to songbook

SHARE PAGE  



You need to log in to post comments