Guitar Tabs, Chords and Lyrics
Server problems seems to be fixed. Chordie has been experiencing problems with songs disappearing. These issues now seems to be fixed, but still verifying the fix. If you find anything strange, please email admin@chordie.com.


Omega  Rebecca St. James

Omega (Intro)
-Rebecca st. James
If you don`t now how to tune your guitar, I would nearly forbid you to look
further, cous then you`re an insult to all us guitar players (har har har),
because you got to tune the e bass (6th string) a half note down, to eb or
d#. The 6th string ,6th fret (one fret higher than normal tuning shoud sound
like the open 5th string. Thune the rest of your`e guitar as usual.
Then you can play it right.
 
 e --------------------------------------------------------------------------I
 b --------------------------------------------------------------------------I
 g --------------------------------------------------------------------------I
 d ---4--4--------------6--6----------------4--4-----------------------------I
 a -2--2--2----4--4---4--4--4---6--6------2--2--2----4--4-------4--4-----4--4I
 e ----------3--3--3----------5--5--7--------------3--3--3--0--3--3---0-3--3-I

question`s mail me, at an3s_88@solcon.com, or if that one doesn`t work than
you can contact me at a.p.louws@solcon.net
Bye and God bless
=============================================================================
Artist: Rebecca St. James
Song Title: Omega
CD Title: Pray
This is pretty much the tab for the main part of the song...
 
 e------------------------------------------------------------
 b------------------------------------------------------------
 G---0---0---------------------2----2-------------------------
 D---------------0-----0-----0---0----0---------2-----2-------
 A-3---3---3----------------------------------0-----0------2--
 E------------3-----3----3------------------------------------
 e------------------------------------------------------------
 b------------------------------------------------------------
 G---0---0----------------------------------------------------
 D----------------0----0--------------0----0-----------0---0--
 A-3---3---3---------------------2-----2-----------2----2-----
 E--------------3----3----3----0------------------0----------- 

The rest I think is just violins and keyboards or something but this sounds
good with the words.....If you have anything else to add contact me:
matth1355@aol.com
Matt <
=========================================================================
TITLE: Omega
ARTIST: Rebecca St. James
ALBUM: Pray
TABBED by Brian Duffield bduffield2@eircom.net
I know about 50 people who've asked for this song, but the truth is there
are no real chords for it. There is only really a tab to it, which I can't
work out. But I think these chords are ok to go with it. May the Grace of
The Lord Be with YOU!
Intro and Verses:
[D] [A2] [D7] [A2] [D] [A2] [Em]  
Chorus:
[G] [A2] [D]  
[G] [A2] [A7]  
[D] [Em]  
And so on...

Important: The song above is NOT stored on the Chordie server. The original song is hosted at www.christianguitar.org. Chordie works as a search engine and provides on-the-fly formatting. Chordie does not index songs against artists'/composers' will. To remove this song please click here.

Text color:
Chord color:
Chord grids: 
Font size:    
Page size: 

A2 A7 D D7 Em G
Rate #1 of 1 versions

Jango Player

Login - add to songbook

SHARE PAGE  




You need to log in to post comments