Guitar Tabs, Chords and Lyrics
Login is temporarily disabled for some users. Do not panic. Will be back in an hour or two. DO NOT REREGISTER!!


Voice of Truth  Casting Crowns

 
 -------------------------------------------------------------------------------

VOICE OF TRUTH - Casting Crowns
 
 --------------------------------------------------------------------------------

By: Gary(garyhale@spu.edu)
GUITAR 1'S PARTS:
 
 -----------------

Chords Used:
[F#maj] [D#sus2] [Bsus2] [E5] [C#sus2] [Dsus2] [F#5] [C#5] [D#5] [B5] [Esus2]  
 
 e ----2------6-------2----------4-----5-------------------------7-----------
 B ----2------6-------2----------4-----5-------------------------7-----------
 G ----3------8-------4----------6-----7----------6----8---4-----9-----------
 D ----4------8-------4----2-----6-----7-----4----6----8---4-----9-----------
 A ----4------6-------2----2-----4-----5-----4----4----6---2-----7-----------
 E ----2-------------------0-----------------2------------------------------- 

Intro: F#maj - D#sus2 - Bsus2 - Bsus2 (2x)
Verse:
[F#maj]  
[D#sus2] [Bsus2]  
[E5] [Bsus2]  
[F#maj]  
[D#sus2] [Bsus2]  
[E5] [Bsus2]  
[C#sus2] [Bsus2] [F#maj] 
[C#sus2] [Bsus2] [F#maj] 
[C#sus2] [Bsus2]  
[Bsus2] [C#sus2] [Dsus2] [Bsus2] 
[C#sus2]  
Chorus:
[F#5] [C#5] [D#5]  
[B5] [F#5]  
[C#5] [D#5]  
[B5]  
[D#5] [B5]  
Break: (Repeat Intro, 1x)
Verse 2
Repeat Chorus
Bridge:
[Dsus2] [Esus2]  
[Dsus2] [Esus2]  
[Dsus2] [Esus2]  
[Bsus2]  
[C#sus2]  
Repeat Chorus
[D#5] [B5]  
Repeat Intro: (6x) End on Bsus2
GUITAR 2'S PARTS:
 
 -----------------

Intro: (2x, I tried to mimmick the piano part)
 
 e ---------------------------------------------------------------------------
 B ---------------------------------------------------------------------------
 G -6--6-6--6--6---6-6-6-6-----------------8-8-8-8----------------------------
 D -6--6-6--6--6h8-8-8-8-8--6--6-6--6--6h8-8-8-8-8--6--6-6--6--6h8-8-8-8-8----
 A -9--9-9--9--9---9-9-9-9--6--6-6--6--6---6-6-6-6--9--9-9--9--9---9-9-9-9----
 E -------------------------------------------------7--7-7--7--7---7-7-7-7---- 

Intro Cont'd:
 
 e ------------------------------
 B ------------------------------
 G ------------------------------
 D -6--6-6--6--6h8-8-8-8-8-------
 A -9--9-9--9--9---9-9-9-9-------
 E -7--7-7--7--7---7-7-7-7------- 

Verse: (guitar 1 only)
Chorus: (Play same as guitar 1)
Break: (3x) 4th time, play:
 
 e -------9-----------9------------ --------9----------
 B -6h7---------6h7--------6h7p6--- --6h7-------7~-----
 G -----6----6------6----6-------6- ------6---6-6~-----
 D -------------------------------- -------------------
 A -------------------------------- -------------------
 E -------------------------------- ------------------- 

Repeat Verse
Repeat Chorus
Bridge:
 
 e -------------------------------------------
 B -------------------------------------------
 G ---7>--------7>--------7>--------4>---6>---
 D ---7>---2>---7>---2>---7>---2>---4>---6>---
 A ---5>---2>---5>---2>---5>---2>---2>---4>---
 E --------0>--------0>--------0>------------- 

Outro: (Play same chords as guitar 1)
This is probably off at some points, but I did the best I could.
http://www.geocities.com/ggtabs07/
===============================================================================

Important: The song above is NOT stored on the Chordie server. The original song is hosted at www.christianguitar.org. Chordie works as a search engine and provides on-the-fly formatting. Chordie does not index songs against artists'/composers' will. To remove this song please click here.

Text color:
Chord color:
Chord grids: 
Font size:    
Page size: 

B5 Bsus2 C#5 C#sus2 D#5 D#sus2 Dsus2 E5 Esus2 F#5 F#maj
Rate #1 of 13 versions

Login - add to songbook

SHARE PAGE  




You need to log in to post comments