Guitar Tabs, Chords and Lyrics
Server problems seems to be fixed. Chordie has been experiencing problems with songs disappearing. These issues now seems to be fixed, but still verifying the fix. If you find anything strange, please email admin@chordie.com.


Unashamed Love  Ten Shekel Shirt

 
 -------------------------------------------------------------------------------

UNASHAMED LOVE - Ten Shekel Shirt
 
 --------------------------------------------------------------------------------

By: Gary(garyhale@spu.edu)
CAPO 1ST FRET!!!
GUITAR 1'S PARTS:
 
 -----------------

Chords Used:
[G] [Csus2] [Em7]  
 
 e -3----3----3----
 B -3----3----3----
 G -0----0----0----
 D -0----2----2----
 A -2----3----2----
 E -3---------0---- 

Intro: G - Csus2 - Em7 - Csus2
verse:
[G] [Csus2]  
[Em7] [Csus2]  
[G] [Csus2] [G] [Csus2]  
[G] [Csus2]  
[Em7] [Csus2]  
[G] [Csus2] [G] [Csus2]  
Chorus:
[G]  
[Csus2]  
[Em7] [Csus2]  
[G]  
[Csus2]  
[Em7] [Csus2]  
 
 Break: G - Csus2 - Em7 - Csus2 - G - Csus2 - G - Csus2

Repeat Verse
Repeat Chorus (2x)
Tag:
[G] [Csus2] [G] [Csus2]  
[G] [Csus2] [Em7] [Csus2]  
Break: G - Csus2 - Em7 - Csus2
Outro:
[G] [Csus2]  
[Em7] [Csus2]  
[G] [Csus2]  
[Em7] [Csus2]  
2ND GUITAR PARTS:
 
 -----------------

Intro: (Played on violin I believe)
 
 e ---------------------------------------------------------------------------
 B ---------------------------------------------------------------------------
 G ---------------------------------------------------------------------------
 D -9~---7~---4~---/5~--------------------------------------------------------
 A ---------------------------------------------------------------------------
 E --------------------------------------------------------------------------- 

Chorus: (You figure out where it's played at)
 
 e -----10~-
 B ---8-----
 G -7-------
 D ---------
 A ---------
 E --------- 

Break: (String instruments again)
 
 e ---------------------------------------------------------------------------
 B -8--10--12~--10-8--------------8-10-12~--10-8------------------------------
 G ------------------7--7-9----------------------7-9~-------------------------
 D ---------------------------------------------------------------------------
 A -------------------------10~-----------------------------------------------
 E --------------------------------------------------------------------------- 

Repeat Verse
Repeat Chorus
Break: (Same as guitar 1)
Outro: (Played on strings, it's the vocal singing melody during the chorus)
 
 e ---------------------------------------------------------------------------
 B -8-10-12-10-8-7--8-10-12-10-8-7--8-10-12-10-8------------------------------
 G ----------------------------------------------7-9~-------------------------
 D ---------------------------------------------------------------------------
 A ---------------------------------------------------------------------------
 E --------------------------------------------------------------------------- 

E-mail me any requests or questions you have.
Check out http://www.geocities.com/ggtabs07 for more tabs!
===============================================================================

Important: The song above is NOT stored on the Chordie server. The original song is hosted at www.christianguitar.org. Chordie works as a search engine and provides on-the-fly formatting. Chordie does not index songs against artists'/composers' will. To remove this song please click here.

Text color:
Chord color:
Chord grids: 
Font size:    
Page size: 

Csus2 Em7 G
Rate #1 of 6 versions

Jango Player

Login - add to songbook

SHARE PAGE  



You need to log in to post comments