Guitar Tabs, Chords and Lyrics
Server problems seems to be fixed. Chordie has been experiencing problems with songs disappearing. These issues now seems to be fixed, but still verifying the fix. If you find anything strange, please email admin@chordie.com.


California  Hawk Nelson

Song: California
Artist: Hawk Nelson
CD: Letters to the President (Tooth And Nail 2004)
Don't have the booklet with me for copyright info.
Tabbed by: Josh projectcrossing@hotmail.com
Intro licks
[F#] [B] [C#]  
 
 E -------------------------------------
 A ----------------2-2----2-2-----------
 D 4-4---4-4-4-----------4------------4-
 G ---3-1-----3-4-3---3-1----3-4-3-1-3--
 B -------------------------------------
 E ------------------------------------- 

Verse
[F#] [B] [Bb]  
[F#] [B] [C#]  
[F#] [B] [Bb]  
[F#] [B] [C#]  
(palm mute)
[F#] [B] [Bb]  
[F#] [B] [C#]  
[F#] [B] [Bb]  
[F#] [B] [C#]  
[F#]  
Chorus
[F#] [B] [C#]  
[F#] [B] [C#]  
[Ebm] [D] [C#]  
[B] [C#]  
Solo
 
 E ---------------------------------------------------------
 A ---------------------------------------------------------
 D -----------------------------6---------------------------
 G 6-6-6-6-3-3-1-3-4-3-6-6-6-3-4-3--------1-3-4-1-3-1-3-1-3-
 B --------------------------------------2------------------
 E -------------------------------2-2-2-2------------------- 

It's pretty much that progression the entire time, When it sounds like a surf
rock song he is playing the bass notes really fast. Listen to song for timing.
Enjoy!!
_____________________________________________________________
_______________Intro Tab_____________________________________
_____________________________________________________________
Song: California
Band: Hawk Nelson
CD: Letters to the President
Copyright 2004, tooth and nail records
Tabbed by: Jesus Freak492
Intro Tab:
/ is a rest of pause in the music
 
 E-----------------------------------------2-2-2-2---------------------
 B---------------------------------------------------2-----------------
 G-6-6-6-6-3/ 3-1-3-4/ 6-6-6-6-3-4-3/------------------1-3-4-3-1-3-1-3-
 D-------------------------------------6-------------------------------
 A---------------------------------------------------------------------
 E---------------------------------------------------------------------


Important: The song above is NOT stored on the Chordie server. The original song is hosted at www.christianguitar.org. Chordie works as a search engine and provides on-the-fly formatting. Chordie does not index songs against artists'/composers' will. To remove this song please click here.

Text color:
Chord color:
Chord grids: 
Font size:    
Page size: 

B Bb C# D Ebm F#
Rate #1 of 4 versions

Jango Player

Login - add to songbook

SHARE PAGE  




You need to log in to post comments