Guitar Tabs, Chords and Lyrics
Major upgrade!! After one year development the new version of Chordie is now online! Please give feedback.


Mona Lisa  Galactic Cowboys

By Galactic Cowboys
From The Horse That Bud Bought
Transcribed by: Andrew Saunders
Submitted by: john street
Tuning DADGBE
[Am7]Another l[C]onely day I'm [G5]looking at your [A5]picture
[Am7]I love th[C]e way that you[G5] compare[A5]
[Am7]Even thou[C]gh you're not [G5]much for convers[A5]ation
[Am7]I can't h[C]elp but want t[G5]o stare[A5]
[G5]My Mona Lisa
Ryth fig 1
 
 e------------------------------------------------------------- -------------
 B-------1--------------1--------------1--------------3-------- -------------
 G-----0----0---0-----0----0---0-----0----0---0-----0----0---0- -------------
 D------------2--------------2--------------2--------------3--- -------------
 A--0--------------3------------------------------------------- -------------
 E--------------------------------3--------------5------------- -------------

2nd verse play ryth fig 1 4x
[Am7]Another p[C]iece of coal I[G5]'ll scratch you [A5]on the surface
[Am7]I feel my[C] heart begin t[G5]o care[A5]
[Am7]And even [C]though your mo[G5]m and dad don't [A5]really think so
[Am7]You'd loo[C]k good with pu[G5]rple hair[A5]
[G5]My Mona Lisa
Chorus
 
 e------------------------------------------------------------------ --------
 B------------------------------------------------------------------ --------
 G----------------------------------3-3-3-3-3-3-3-3-5-5-5-5-5-5-5-5- --------
 D--0-0-0-0-0-0-0-0-3-3-3-3-3-3-3-3-3-3-3-3-3-3-3-3-5-5-5-5-5-5-5-5- --------
 A--0-0-0-0-0-0-0-0-3-3-3-3-3-3-3-3-1-1-1-1-1-1-1-1-3-3-3-3-3-3-3-3- --------
 E--0-0-0-0-0-0-0-0-3-3-3-3-3-3-3-3--------------------------------- --------

I'm turning on the brights of my imagination
8x
 
 e---------------------------------------------------------------- ---------
 B---------------------------------------------------------------- ---------
 G---------------------------------------------------5------------ -3-3-3-3-
 D--0-0-0-0-0-0-0-0-3-3-3-3-3-3-3-3-5-5-5-5-5-5-5-3--5----5----3-- -3-3-3-3-
 A--0-0-0-0-0-0-0-0-3-3-3-3-3-3-3-3-5-5-5-5-5-5-5-3--3----5----3-- -1-1-1-1-
 E--0-0-0-0-0-0-0-0-3-3-3-3-3-3-3-3-5-5-5-5-5-5-5-3-------5----3-- --------- 

My masterpiece tonight, My Mona Lisa 1x
Ryth fig 2
 
 e-------------------------------------------------------------------- -----
 B-------------------------------------------------------------------- -----
 G---------------------------------------------------------5---5---5-- -----
 D-5------5-1--------5-------5-1--------5---------1--------5---5---5-- -----
 A-5------5-1--------5-------5-1--------5---------1--------3---3---3-- -----
 E-5------5-1--------5-------5-1--------5---------1------------------- -7b8r 

I know your momma's sad, I know your daddy's sad. . .
Ryth fig 3
 
 e---------------------------------
 B---------------------------------
 G---------------------------------
 D-0--/8---7---0-6---5-0-4-3-0-3-2-
 A-0--/8---7---0-6---5-0-4-3-0-3-2-
 E-0--/8---7---0-6---5-0-4-3-0-3-2- 

I'm gonna change you
Ryth fig 4
 
 e--------------------------------------------------------------------
 B--------------------------------------------------------------------
 G--------------------------------------------------------------------
 D-1--------5--------1---------5---------1--------5---------3---3---3-
 A-1--------5--------1---------5---------1--------5---------3---3---3-
 E-1--------5--------1---------5---------1--------5---------3---3---3- 

Oh yeah Alright Ohyeah
Ryth fig 5 (play with ryth fig 3 at end of song)
 
 e----------------------
 B----------------------
 G--8-8-8-8/10-10-10-10-
 D--x-x-x-x-x--x--x--x--
 A--6-6-6-6/8--8--8--8--
 E---------------------- 


Important: The song above is NOT stored on the Chordie server. The original song is hosted at www.christianguitar.org. Chordie works as a search engine and provides on-the-fly formatting. Chordie does not index songs against artists'/composers' will. To remove this song please click here.

Text color:
Chord color:
Chord grids: 
Font size:    
Page size: 

A5 Am7 C G5
Rate #1 of 1 versions

Jango Player

Login - add to songbook

SHARE PAGE  




You need to log in to post comments