Guitar Tabs, Chords and Lyrics
Major upgrade!! After one year development the new version of Chordie is now online! Please give feedback.


Ranch on Mars  Galactic Cowboys

By: Galactic Cowboys
From: Space In Your Face
Written by: Monty Colvin & Ben Huggins
Submitted by: John Street(Fraggle@BellSouth.net)
Transcribed by: Andrew Saunders
Dropped D tuning-DADGBE
Countdown
 
 E--------0-----------0----------0-----------0----
 B------------------------------------------------
 G------8----8-----7-----7-----8----8-----7-----7-
 D---8----------9-----------8----------9----------

Intro Riff1
 
 D-0------0-0-0--6------6-6-6--0------0-0-0--6------6-6-6---------
 A-0------0-0-0--6------6-6-6--0------0-0-0--6------6-6-6---------
 D-0------0-0-0--6------6-6-6--0------0-0-0--6------6-6-6---------

p.m. p.m. p.m. p.m.
Intro Riff2
 
 D-2-2-2-8---9--2-2-2-12-\6---2-2-2-8---9--2---2---3---4----------
 A-2-2-2-8---9--2-2-2-12-\6---2-2-2-8---9--2---2---3---4----------
 D-2-2-2-8---9--2-2-2-12-\6---2-2-2-8---9--2---2---3---4----------

Verse Riff
 
 B-----------------------------------------------------------------
 G---------9--------------9--------------9--------------9----------
 D-----11-----11------11-----11------11-----11------11-----11------
 A-11-------------10-------------11-------------10-----------------

Different faces, different names peculiar people just the same
 
 B-------------------------------------0-----7---------------------
 G---------9--------------9----------------------------------------
 D-----11-----11------11-----10-----8-----8-----8-----8------------
 A-11-------------10-------------9-----------------9---------------

We are brothers in our hearts
Chorus
[A] [B] [E] [Ab] [A] [B]  
 [C]
 E-5------------7--------------0------------4--------------5-------7----8--
 B-5------------7--------------0------------4--------------5-------7----8--
 G-6------------8--------------1------------5--------------6-------8----9--
 D-7------------9--------------2------------6--------------7-------9----10-
 A-7------------9--------------2------------6--------------7-------9----10-
 D-------------------------------------------------------------------------

Someday we'll live among the stars, maybe own a ranch on Mars
Country Riff
 
 D----------------------------------------------------------------
 A-0-0------0-0------0-0------0-0---------------------------------
 D------2-5------2-5------2-5------2-5----------------------------

Outro
 
 D-2------9------6------9------2----------------------------------
 A-2------9------6------9------2----------------------------------
 D-2------9------6------9------2----------------------------------


Important: The song above is NOT stored on the Chordie server. The original song is hosted at www.christianguitar.org. Chordie works as a search engine and provides on-the-fly formatting. Chordie does not index songs against artists'/composers' will. To remove this song please click here.

Text color:
Chord color:
Chord grids: 
Font size:    
Page size: 

A Ab B C E
Rate #1 of 6 versions

Jango Player

Login - add to songbook

SHARE PAGE  



You need to log in to post comments