Guitar Tabs, Chords and Lyrics
Update 25:10. 13:00. Site is back up running again. Songbooks are recovered. Woring on getting search back up..


Worldwide  Adam Again

Title: Worldwide
Artist: Adam Again
Album: Dig
Author: Gene Eugene
1992 Chenka Chenka Music ASCAP
Correctly tabbed by: Nathan Stock 5/25/98 (questions, comments, NathanStock@avenew.com)
Standard Tuning
Chords:
[F] [G] [Am] [Dm] [A#] [C]  
 
 e---1---3---5----5----6----3-----
 B---1---3---5----6----6----5-----
 G---2---4---5----7----7----5-----
 D---3---5---7----7----8----5-----
 A---3---5---7----5----8----3-----
 E---1---3---5----5----6----3-----

Solo/Riffs:
Riff A
 
 e-------------------------------------------
 B-------------------------------------------
 G----------5---------7----------9-7---------
 D--3-3-5/7---5-5-7/9---7-7-9/11--------8----
 A-------------------------------------------
 E-------------------------------------------

Riff B
 
 e-------------------------------------------
 B-------------------------------------------
 G---------5----7-5-7/9----9-9-7-5-7-5-------
 D--3----7-----------------------------7-----
 A-------------------------------------------
 E-------------------------------------------

Intro: (Acoustic)
[F] [G] [Am] [Dm]  
[F] [G] [Am] [Dm]  
[F]There is a [G]reason
And I [Am]don't know what it [Dm]is
[F]A bloody [G]season
Well, I've [Am]heard that these things [Dm]happen
[A#]Worldw[F]ide
[G]World[C]wide
[Dm]Don't think I'll [A#]ever understand it
[F]Don't think it [C]matters [A]if I do
[Dm]Three billion [A#]people in the world
And I [F]only know a [C]few
[Am]World[Dm]wide
[G]World[C]wide
(whistle)
[F] [G] [Am] [Dm]  
[F] [G] [Am] [Dm]  
[A#]It’s[F] worldwide
[G]World[C]wide
(electric)
[F]Tears on the [G]driver's side
His [Am]head is in his [Dm]hands
[F]Voice of an [G]angel silenced
At the [Am]whim of a mere [Dm]man
[A#]It's worl[F]dwide
[G]World[C]wide
[Dm]But we all [A#]love that desert thunder
[F]We put some [C]stickers [A]on our bumper
[Dm]Three billion [A#]nothings in the world
Why should [F]anybody [C]bother?
[Am]World[Dm]wide
World[C]wide
(Riff A x2 then Riff B x1)
[Dm]What about [A#]Headman Shabalala?
[F]Does anybody [C]care [A]about justice?
[Dm]Three billion [A#]people in the world
And his [F]spirit weeps for all of [C]us
[Am]World[Dm]wide
World[C]wide[F]

Important: The song above is NOT stored on the Chordie server. The original song is hosted at www.christianguitar.org. Chordie works as a search engine and provides on-the-fly formatting. Chordie does not index songs against artists'/composers' will. To remove this song please click here.

Text color:
Chord color:
Chord grids: 
Font size:    
Page size: 

A A# Am C Dm F G
Rate #1 of 2 versions

Jango Player

Login - add to songbook

SHARE PAGE  



You need to log in to post comments