Guitar Tabs, Chords and Lyrics
Major upgrade!! After one year development the new version of Chordie is now online! Please give feedback.


Speak to Me  Galactic Cowboys

By: Galactic Cowboys
From: Galactic Cowboys
Written by: Monty Colvin & Ben Huggins
Submitted by: John Street(Fraggle@BellSouth.net)
Transcribed by: Andrew Saunders
Dropped D tuning-DADGBE
Verse 1
[Em]Three O'Clock in the morni[C]ng, [D2]voices in my he[Em]ad
[Em]I'm wide awake, I should be [C]sleeping, [D2]voice alive or d[Em]ead
[Em]Someone screaming out a wa[C]rning, [D2]should I heed the c[Em]all
[Em]A messanger I should be kn[C]owing, [D2]voice inside my [Em]head
[C]Made it through another y[D2]ear, [Em]crying yet another [G]tear
[C]Pondering the endless [D2]questions of [Em]life
Verse 2
My undivided attention, voice returns again
The pressure builds up I fell the tension, voice inside my head
What should I do with all you've given, discern the ring of truth
I'm not the kind to be so driven, the choice is up to you
[C]Made it through another [D2]year, [Em]crying yet another te[G]ar
[C]Pondering the endless [D2]questions of [Em]life
* [C(C5)]Made it through anothe[D2]r year[Em], crying yet another [G(G5)]tear
[C(C5)]Pondering the things I d[D2]ream in the n[Em]ight
Electric guitar chord in parenthesies (if they differ from acoustic)
[C5]You know just what to say, [D2]speak to [C5]me
[C5]You know just what to say, speak to me
Interlude
Riff 1
 
 D----------------------------------------------------------------------
 A--------3-2-1------------------3-2-1------------------3-2-1-----------
 E-0-0000-------3-2-1-3-2-0-0000-------3-2-1-3-2-0-0000-------3-2-1-3-2-
 D------------------------
 A--------3-2-1-----3-5-4-
 E-0-0000-------3-2-1-3-2-

Riff 1b
 
 D--------5-4-3------------------5-4-3------------------5-4-3-----------
 A-2-2222-3-2-1-5-4-3-5-4-2-2222-3-2-1-5-4-3-5-4-2-2222-3-2-1-5-4-3-5-4-
 E-0-0000-------3-2-1-3-2-0-0000-------3-2-1-3-2-0-0000-------3-2-1-3-2-
 D--------5-4-3-----------
 A-2-2222-3-2-1-5-4-3-5-4- Riff 1b is not much different from Riff 1
 E-0-0000-------3-2-1-3-2- its just a little heavier sounding. It

dosen't really matter which one you use
Riff 2 just use whichever you like better.
 
 D-------------------------------------
 A-2-2-2-3-3-31010-9-9-8-8-15-15-14-14-
 E-0-0-0-1-1-1-8-8-7-7-6-6-13-13-12-12-

Riff 3
 
 G-------------------------------
 D-------5h7-7-------------------
 A-5h7-7-------5h7-7-3h5-5-------
 E-------------------------3h5-5-

Segue
[E] [Am] [D] [E]  
[E(E5)]Speak to me
Am(Am?) Play this 3 times with acoustic and clean electric
Speak to me Kick in with heavy, blaring distortion on 4th time
[Dm]Speak to [E]me
[E]Yeah yeah yeah Play "Yeah" part twice with Bends
[Am]Yeah yeah yeah
[Dm]Yeah yeah yeah
Speak to [E]me
Bends*
 
 E----------------------- -16b17-
 G-----12-12-------12-12- -------
 B-14b16-------14b16----- -------

* Bends are played over and over again
 
 D---------------------12~----------------------------------12^-------------
 A-10^-----10^------------12-10~---10-12--10^-----10^----------12-10~---10--
 E-----12------12---------------12------------12------12-------------12-----
 D------------------12~-----------------------------------------------------
 A-12--10^-------------12-10-12----10-12--10^---------10^---------10^-10^---
 E---------12-------------------12--------------12----------12-----------12-
 D--------------------12^~~---------------------------------12^~~-----------
 A----------10^----------10-12----10-12-----------10^----------10-12----12--
 E-5-6-7-10-----12-------------12--------5-6-7-10-----12-------------12-----
 D---------------------------12^------------------------5h7-7---------------
 A-10---10^----------------------10-12----10-12---5h7-7-------5h7-7-3h5-5---
 E----------12--5-6-7-10---------------12-----------------------------------
 D-------
 A-------

E-3h5-5-
Em Am D2 C G C5 G5 D Dm E5 Am?
 
 E----0- --0- --0- --0- --3- ---- ---- --2- --1- ---- --0--
 B----0- --1- --3- --1- --0- ---- ---- --3- --2- ---- --1--
 G----0- --2- --2- --0- --0- --5- ---- --2- --3- ---- --2--
 D----2- --2- --0- --2- --0- --5- --5- --0- --2- --2- --2--
 A----2- --0- ---- --3- --2- --3- --5- ---- ---- --2- --0--
 E------ --0- ---- ---- --3- ---- --3- ---- ---- --0- --2--


Important: The song above is NOT stored on the Chordie server. The original song is hosted at www.christianguitar.org. Chordie works as a search engine and provides on-the-fly formatting. Chordie does not index songs against artists'/composers' will. To remove this song please click here.

Text color:
Chord color:
Chord grids: 
Font size:    
Page size: 

Am C C5 D D2 Dm E Em G
Rate #1 of 1 versions

Jango Player

Login - add to songbook

SHARE PAGE  



You need to log in to post comments