Guitar Tabs, Chords and Lyrics
Server problems seems to be fixed. Chordie has been experiencing problems with songs disappearing. These issues now seems to be fixed, but still verifying the fix. If you find anything strange, please email admin@chordie.com.


Live Forever  Michael W. Smith

By Michael W. Smith
on CD "Healing Rain" (c)2004
Transcribed by Charles Evans (kona1611 at yahoo dot com)
Updates/corrections welcome.
Tempo: 70 bpm, Time: 5:19
Key of Bb. Standard tuning. Capo on 3. All chords are relative to capo.
INTRO:
[G] [G/F#] [Em] [C] [G] [G/F#] [Em] [C]  
 
 e ------3--2---- --------------- -------3--2----- ----------------
 B --(0)-------3- -(0)--0--1--3-- --(0)--------3-- --(0)--0--------
 G -------------- --------------- ---------------- ----------2--0--
 D -------------- --------------- ---------------- ----------------
 A -------------- --------------- ---------------- ----------------
 E -------------- --------------- ---------------- ---------------- 

VERSE 1:
[G] [G/F#] [Em]  
[G] [G/F#] [Em]  
[G] [G/F#] [Em]  
[G] [G/F#] [Em]  
Asus7 (002233) A
 
 e ----------------------------
 A B ----0-2-3-------------------
 G --2-----------------------2- 

CHORUS:
[G] [G/F#] [Em] [C]  
[G] [G/F#] [Em] [C]  
[G] [G/F#] [Em] [C]  
[Am] [C] [G]  
(play first 2 measures of INTRO)
VERSE 2:
[G] [G/F#] [Em]  
[G] [G/F#] [Em]  
[G] [G/F#] [Em]  
[G] [G/F#] [Em]  
A Asus7 A (see above)
REPEAT CHORUS
BRIDGE:
(...end of chorus)... G) E
[G] [G/F#] [E]  
[G] [G/F#] [E]  
[C]  
play INTRO 2x vocals ad lib
CHORUS ad lib
OUTRO (play INTRO 2x vocals ad lib)
Continue playing INTRO and vocals ad lib

Important: The song above is NOT stored on the Chordie server. The original song is hosted at www.christianguitar.org. Chordie works as a search engine and provides on-the-fly formatting. Chordie does not index songs against artists'/composers' will. To remove this song please click here.

Text color:
Chord color:
Chord grids: 
Font size:    
Page size: 

Am C E Em G G/F#
Rate #1 of 1 versions

Jango Player

Login - add to songbook

SHARE PAGE  



You need to log in to post comments