Guitar Tabs, Chords and Lyrics
Server problems seems to be fixed. Chordie has been experiencing problems with songs disappearing. These issues now seems to be fixed, but still verifying the fix. If you find anything strange, please email admin@chordie.com.


Lift Me Up  The Benjamin Gate

by The Benjamin Gate
tabbed by Jason
this is the complete and almost accurate tab... since i couldnt find it here,
i decided to tab it... id say its 90% accurate...
2 guitars are needed to play this song...
guitars = guitar 1 and 3, single coil pickup...
guitar 2, 4, and 5, humbucker pickup...
Intro and Verse (guitar 1 and 2)
Guitar 1
strumming patterns not indicated, figure it out yourself...
but this is how they should look and sound...
 
 e -0--0--0--0-
 B -0--0--0--0-
 G -4--4--6--4-
 D -0--0--4--0-
 A -4--4--6--2-
 E -x--x--x--x- 

Guitar 2
not the right time... listen to the cd...
 
 e -4--4- -0-2-4-0- -4--4- -4h5-5-5p4-
 B -0--0- -0-0-0-0- -0--0- -0-0-0---0- 

Pre-Chorus
this is not accurate...
 
 e ------------------------- -------------------------
 B -12----12----12----12---- -14----14----14----14----
 G ----13----13----13----13- ----13----13----13----13- 

Chorus (Guitar 3 and 4) again, listen to the cd for
the right time and strumming pattern
Guitar 3
[AM7] [F#] [AM7] [F#]  
 
 e -0--0--0--0--0--0- ------------
 B -0--0--0--0--0--0- -2-----2----
 G -4--4--6--6--4--4- -1-----1----
 D -0--0--4--4--0--0- -2--4--2--4-
 A -4--4--6--6--4--2- -0--4-----4-
 E -x--x--x--x--x--x- ----2-----2- 

Guitar 4
this is the part where the dude (dont know his name)
strums it really really fast...
 
 e ----- ------
 B ----- ------
 G -9-8- -9-11-
 D -9-8- -9-11-
 A -7-6- -7-9--
 E -x-x- -x-x-- 

Verse 2 (guitar 1 and 2)
Pre Chorus
Chorus (guitar 3 and 4)
Bridge (had help with my friend who plays the piano really good on this part)
 
 e --- --- --- -0- -0-0-0-0-
 B --- --- --- -0- -0-0-0-0-
 G -1- -1- -1- -2- -2-4-6-8-
 D -2- -2- -2- -2- -2-4-6-8-
 A -2- -2- -2- -0- -0-2-4-6-
 E -2- -0- -2- --- --------- 

Solo? its just the Guitar 3 and 4 part
Chorus
2nd chorus and end part, its still guitar 3, but guitar 4 changes...
Guitar 5
 
 e ---- ----
 B ---- ---- 

[G] [-13-] [-14-]  
[D] [-13-] [-14-]  
[A] [-11-] [-12-]  
 
 E ---- ---- 

both guitars then do guitar 5 and end with this chord...
e ----
[B] [----]  
[G] [-13-]  
[D] [-13-]  
[A] [-11-]  
[E] [----]  
strumming patterns are not indicated... its kinda hard to tab out
strumming... one easy way to learn the strumming is to listen to one speaker
at a time... the left speaker has one guitar part and the right speaker has
a different one... on my cd player, guitars 1, 3, and comes out of the
left speaker... 2, 4, and 5 are right speakers...

Important: The song above is NOT stored on the Chordie server. The original song is hosted at www.christianguitar.org. Chordie works as a search engine and provides on-the-fly formatting. Chordie does not index songs against artists'/composers' will. To remove this song please click here.

Text color:
Chord color:
Chord grids: 
Font size:    
Page size: 

A Am7 B D E F# G
Rate #1 of 1 versions

Jango Player

Login - add to songbook

SHARE PAGE  



You need to log in to post comments