Guitar Tabs, Chords and Lyrics
Server problems seems to be fixed. Chordie has been experiencing problems with songs disappearing. These issues now seems to be fixed, but still verifying the fix. If you find anything strange, please email admin@chordie.com.


God Is Great  Fusebox

Song: GOD Is Great
Artist: Fusebox
Words: Mary Sampson
Music: Fusebox
I can't there aren't any tabs for this song yet it rocks! FUSEBOX ROCKS!
This song is in drop C#
 
 C#---0--0--10--12--0--10--12--10--12--0--10--12-X-X-X-X-0-3
 G#---0--0--10--12--0--10--12--10--12--0--10--12-X-X-X-X-0-3
 C#---0--0--10--12--0--10--12--10--12--0--10--12-X-X-X-X-0-3
 C#---0--0--10--12--0--10--12--10--12--0--10--12-X-2-X-3
 G#---0--0--10--12--0--10--12--10--12--0--10--12-X-2-X-3
 C#---0--0--10--12--0--10--12--10--12--0--10--12-X-2-X-3

Verse is
[Bb] [F#] [G#] [Bb] [F#] [G#] [Ebm] 
 
 C#----------------------5slide10-9------------------------------------
 G#--9------5------7-----------------------9-------5------7----------2
 C#--9------5------7-----------------------9-------5------7----------2

[Bb] [F#] [G#] [Bb] [G#] [F#] [C#] 
 
 C#-----------------------------------------------------------------
 G#--9------5------7-----------------------9---------------------
 C#--9------5------7-----------------------9----7-------5---0--

Then it palm mutes with light/clean distortion
Bb F# G# 3X
Then Bb G # F# G# Bb C#
Then the chorus is the same as the intro
Then it goes Bb F# G# Bb G# F
Verse two is palm muted
[Bb] [F#] [G#]  
[Bb] [F#] [G#] [F#] [F]  
[Bb]Then [F#]Bb G[G#] # F# G# Bb C#
Chorus 2 remains the same
Bridge is
Bb F# G# 4x
Bb F# C# Bb F# G# 2X
that's it

Important: The song above is NOT stored on the Chordie server. The original song is hosted at www.christianguitar.org. Chordie works as a search engine and provides on-the-fly formatting. Chordie does not index songs against artists'/composers' will. To remove this song please click here.

Text color:
Chord color:
Chord grids: 
Font size:    
Page size: 

Bb C# Ebm F F# G#
Rate #1 of 1 versions

Jango Player

Login - add to songbook

SHARE PAGE  



You need to log in to post comments