Guitar Tabs, Chords and Lyrics
Major upgrade!! After one year development the new version of Chordie is now online! Please give feedback.


Flood  Jars of Clay

Song: Flood
Artist: Jars of Clay
Copyright 1995 Brentwood Music, Inc.
Tuning: EABEBE
Capo 3
Intro
[A5] [Fmaj7] [G6/9] [Cmaj7] [A5] [Fmaj7] [G6/9] [Em7]  
 
 E[--0---0----0----0--------0----0----0----0----]
 B[--5---1----3----0--------5----1----3----3----]
 E[--0---0----0----0--------0----0----0----0----]
 B[--5---1----3----8--------5----1----3----2----]
 A[--x---x----x----x--------x----x----x----3----]
 E[--5---1----3----8--------5----1----3----0----]

Verse1 (Palm Muted)
[A5] [G6] [Em7]  
 
 E[--x----x----x---]
 B[--x----x----x---]
 E[--0----0----0---] (4x)
 B[--5----3----2---]
 A[--x----x----3---]
 E[--5----3----0---]

PreChorus1
[A5] [G6] [Em7]  
 
 E[--0----0----0---]
 B[--0----0----0---]
 E[--0----0----0---] (4x)
 B[--5----3----2---]
 A[--x----x----3---]
 E[--5----3----0---]

Chorus1
[A5] [Fmaj7] [G6/9] [Cmaj7] [A5] [Fmaj7] [G6/9] [Em7]  
 
 E[--0---0----0----0--------0----0----0----0----]
 B[--5---1----3----0--------5----1----3----3----]
 E[--0---0----0----0--------0----0----0----0----] (2x)
 B[--5---1----3----8--------5----1----3----2----]
 A[--x---x----x----x--------x----x----x----3----]
 E[--5---1----3----8--------5----1----3----0----]

Tag
[A5]  
 
 E[--0----]
 B[--5----]
 E[--0----]
 B[--5----]
 A[--x----]
 E[--5----]

Verse2 (Palm Muted)
[A5] [G6] [Em7]  
 
 E[--x----x----x---]
 B[--x----x----x---]
 E[--0----0----0---] (4x)
 B[--5----3----3---]
 A[--x----x----2---]
 E[--5----3----0---]

PreChorus2
[A5] [G6] [Em7]  
 
 E[--0----0----0---]
 B[--0----0----0---]
 E[--0----0----0---] (4x)
 B[--5----3----2---]
 A[--x----x----3---]
 E[--5----3----0---]

Chorus2
[A5] [Fmaj7] [G6/9] [Cmaj7] [A5] [Fmaj7] [G6/9] [Em7]  
 
 E[--0---0----0----0--------0----0----0----0----]
 B[--5---1----3----0--------5----1----3----3----]
 E[--0---0----0----0--------0----0----0----0----]
 B[--5---1----3----8--------5----1----3----2----]
 A[--x---x----x----x--------x----x----x----3----]
 E[--5---1----3----8--------5----1----3----0----]

[A5] [Fmaj7] [G6/9] [Cmaj7] [A5] [Fmaj7] [G6/9]  
 
 E[--0---0----0----0--------0----0----0-------------]
 B[--5---1----3----0--------5----1----3-------------]
 E[--0---0----0----0--------0----0----0-


Important: The song above is NOT stored on the Chordie server. The original song is hosted at www.christianguitar.org. Chordie works as a search engine and provides on-the-fly formatting. Chordie does not index songs against artists'/composers' will. To remove this song please click here.

Text color:
Chord color:
Chord grids: 
Font size:    
Page size: 

A5 Cmaj7 Em7 Fmaj7 G6
Rate #1 of 25 versions

Jango Player

Login - add to songbook

SHARE PAGE  




You need to log in to post comments