Guitar Tabs, Chords and Lyrics
Major upgrade!! After one year development the new version of Chordie is now online! Please give feedback.


Paperthin Hymn   Anberlin

 
 B[-6-6-6-6-6-6-6-6-6-6-]
 G[-5-5-5-5-5-5-5-5-5-5-]
 D[-3-3-3-3-3-3-3-3-3-3-]

 


 Then


 

 
 D[-----------3/3----------3/3-----5/5/5---5/5/5-----5/5-]
 A[------0/0/0--------0/0/0------------------------------]x2
 D[-0/0/0--------0/0/0--------3/3/3-----3/3-----3/3/3----]

 


 


 Verse 1


 Play this the whole verse.


 

 
 B[-6-6-6-6-6-6-6-6-6-6-]
 G[-5-5-5-5-5-5-5-5-5-5-]
 D[-3-3-3-3-3-3-3-3-3-3-]

 


 Then before the Pre-Chorus do this


 

 
 A[-------8/7-----]

 


 D[-0/8/10---10/7-]


 


 Pre-Chorus


 

 
 G[10----9--------10--------------]
 D[10----7----3---10--10----------]
 A[-8----0----3----8--10--8/7-----]
 D[-8----0----3----8--10-----10/7-]

 


 


 Chorus


 

 
 G[------------------7-5----]
 D[-0---2-3---7-10---7-5--3-]
 A[-0---3-3---8--8---5-3--3-]x2
 D[-0---2-3---7--8--------3-]

 


 Then


 

 
 B[------5b/rb/b/rb/b/rb/b/rb-]
 G[---------------------------]
 D[-0-------------------------]
 A[-0-------------------------]
 D[-0-------------------------]

 


 


 Verse 2


 Play this the whole verse.


 

 
 B[-6-6-6-6-6-6-6-6-6-6-]
 G[-5-5-5-5-5-5-5-5-5-5-]
 D[-3-3-3-3-3-3-3-3-3-3-]

 


 Then before Pre-Chorus 2 do this.


 

 
 G[----2-10----]
 D[-0--3-10--5-]
 A[-0--0--8--3-]
 D[-0--0--8--2-]

 


 


 Pre-Chorus 2


 

 
 G[10----9---------9---9---9---10---10----]
 D[10----7----3-----7/7-7/7-7/7--7/7--7/7-]
 A[-8----0----3---------------------------]
 D[-8----0----3---------------------------]

 


 


 Chorus 2


 

 
 G[------------------7-5----]
 D[-0---2-3---7-10---7-5--3-]
 A[-0---3-3---8--8---5-3--3-]x2
 D[-0---2-3---7--8--------3-]

 


 


 Post-Chorus


 

 
 G[10---------------------------------------]
 D[10---------------------------------------]
 A[-8---------------------------------------]
 D[-8----10/10/10-0/0/0-10/10/10-0/0/0-10sd-]

 


 


 Bridge


 

 
 D[-----------3/3----------3/3-----5/5/5---5/5/5-----5/5-]
 A[------0/0/0--------0/0/0------------------------------]x3
 D[-0/0/0--------0/0/0--------3/3/3-----3/3-----3/3/3----]
 G[10----5-----]
 D[10----5---3-]
 A[-8----3---3-]
 D[-8--------3-]

 


 


 Chorus 3


 

 
 D[-----------3/3----------3/3-----5/5/5---5/5/5-----5/5-]
 A[------0/0/0--------0/0/0------------------------------]
 D[-0/0/0--------0/0/0--------3/3/3-----3/3-----3/3/3----]

 


 P.M.....................................................


 Then


 

 
 G[-----7-5----]
 D[10---7-5--3-]
 A[-8---5-3--3-]
 D[-8--------3-]
 G[------------------7-5----10-----------10---10-------]
 D[-0---2-3---7-10---7-5--7-10----10---7-10---10----10-]
 A[-0---3-3---8--8---5-3--8--8----10---8--8----8----10-]
 D[-0---2-3---7--8--------7--8----10---7--8----8----10-]


Important: The song above is NOT stored on the Chordie server. The original song is hosted at www.christianguitar.org. Chordie works as a search engine and provides on-the-fly formatting. Chordie does not index songs against artists'/composers' will. To remove this song please click here.

This song is displayed as text-only. Transposing and tuning is only available for chordpro-songs.
Rate #1 of 5 versions

Jango Player

Login - add to songbook

SHARE PAGE  



You need to log in to post comments