Guitar Tabs, Chords and Lyrics
Update 25:10. 13:00. Site is back up running again. Songbooks are recovered. Woring on getting search back up..


Offering  Third Day

by Third Day
Capo 2nd Fret
Intro Em D G Em D G
[Em]Magnificent [D]Holy [G]Father
[Em]I stand in [D]awe of all I [G]see
[C]Of all the [G]things You have [Em]created
[C]But still You choose to think of[Dsus4] me
[Em]Who am [D]I that You should[G] suffer
[Em]Your very [D]life to set me [G]free
[C]The only [G]thing I can g[Em]ive You
[C]Is the [G]life You gave to [D]me
This is my [C]offering, dear [G]Lord
This is my [C]offering to You, [D]God
And I will[Em] give You my [D]life
For Itís [G]all I have to [C]give
[C]Because You gave Your l[D]ife for [Em]me[Em] [D] [G] [Em] [D] [G]
[Em]I stand befo[D]re You at this[G] altar
[Em]So many [D]have given You [G]more
[C]I may not [G]have much I can [Em]offer
[C]Yet what I [G]have is truly Y[D]ours
This is my[C] offering, dear[G] Lord
This is my [C]offering to You, [D]God
And I will [Em]give You my [D]life
For Itís[G] all I have to [C]give
[C]Because You gave Your [D]life for [Em]me
Bridge Em D G C Em Em D G C Em A
This is my offering
Solo - C G C D
____________________________________________________________
OFFERING SOLO
hey guys and girls for that matter, ive been looking around for the
offering solo and it has been hard to find, so i sat down and did it myself,
its an ok job, theres probably a few mistakes, but email the corrections if
you have any!( p_lake_91@hotmail.com )
thanks, live for god
peter
b - bend
 
 E -----------7------------------ ---------14--------------------
 B ---6-9-6---------------------- ------14----14-----------------
 G -----------------b9--7-------- -------------------------------
 D ------------------------------ -------------------------------
 A ------------------------------ -------------------------------
 E ------------------------------ -------------------------------
 E -------------14-12-----14----- ----14-17-14-12----------------
 B ---12-13-14---------14-------- -------------------------------
 G ------------------------------ -------------------------------
 D ------------------------------ -------------------------------
 A ------------------------------ -------------------------------
 E ------------------------------ -------------------------------
 E ------------------------------
 B ---12ó14b---------------------
 G ------------------------------
 D ------------------------------
 A ------------------------------
 E ------------------------------ 


Important: The song above is NOT stored on the Chordie server. The original song is hosted at www.christianguitar.org. Chordie works as a search engine and provides on-the-fly formatting. Chordie does not index songs against artists'/composers' will. To remove this song please click here.

Text color:
Chord color:
Chord grids: 
Font size:    
Page size: 

C D Dsus4 Em G
Rate #1 of 2 versions

Jango Player

Login - add to songbook

SHARE PAGE  




You need to log in to post comments