Guitar Tabs, Chords and Lyrics
Server problems seems to be fixed. Chordie has been experiencing problems with songs disappearing. These issues now seems to be fixed, but still verifying the fix. If you find anything strange, please email admin@chordie.com.


Have Mercy  Third Day

Song: Have Mercy
Artist: Third Day
Album: Conspiracy No. 5
Tabbed by: Marcus Fey
Standard EADGBE Tuning
Chords Used:
G5 355xxx
A5 577xxx
D5 x577xx
C5 x355xx
Verse 1
[G5] [A5]  
Chorus
[G5] [A5] [D5] [C5]  
Verse 2
[G5] [A5]  
Chorus
[G5] [A5] [D5] [C5]  
Bridge
[D5] [A5] [G5] [A5]  
[D5] [A5]  
 
 --------------------------------
 --------------------------------
 -12----11----9----7---6-7-9-----
 --x-----x----x----x---x-x-x-7---
 -10-----9----7----5---4-5-7-7---
 ----------------------------5---

Verse 3
[G5] [A5]  
Solo
*Same as chorus/bridge
Chorus
[G5] [A5] [D5] [C5]  
Bridge
[D5] [A5] [G5] [A5]  
[D5] [A5]  
 
 --------------------------------
 --------------------------------
 -12----11----9----7---6-7-9-----
 --x-----x----x----x---x-x-x-7---
 -10-----9----7----5---4-5-7-7---
 ----------------------------5---

============================================================
============================================================
Solo Tab
Song: Have Mercy (Solo)
Album: Conspiracy #5
Artist: Third Day
Tabbed By: Joe Cataneo
c1997 New Spring publishing ( A div. of Brentwood-Benson music publishing)
1:27
 
 e--------------------------------------------------
 B--------------------------------------------------
 G-9v-9-9-9-9p7--/14-17-12--11v-11b-11b-------------
 D--------------------------------------------------

1:38
 
 e--------------------------------------------------
 B--------------------------------------------------
 G-7-7-5h7-7-7-5---5-7b8r5--14-14-17p14-12h14-------
 D---------------7----------------------------------
 e-----------------15-13h15-12-13-------------------
 B-16b----------------------------15p13-------15p13v
 G-----17p14-17p14----------------------14p12-------
 D--------------------------------------------------

Questions, comments, just want to tell me I'm wrong? E-mail me at
pastort@iol17.com.

Important: The song above is NOT stored on the Chordie server. The original song is hosted at www.christianguitar.org. Chordie works as a search engine and provides on-the-fly formatting. Chordie does not index songs against artists'/composers' will. To remove this song please click here.

Text color:
Chord color:
Chord grids: 
Font size:    
Page size: 

A5 C5 D5 G5
Rate #1 of 4 versions

Jango Player

Login - add to songbook

SHARE PAGE  




You need to log in to post comments