Guitar Tabs, Chords and Lyrics
Server problems seems to be fixed. Chordie has been experiencing problems with songs disappearing. These issues now seems to be fixed, but still verifying the fix. If you find anything strange, please email admin@chordie.com.


My Way or the Highway...  Relient K

*****************************
Band: Relient k
Song: My Way Or The Highway
Copyright: 2001 Gotee Records
Tabbed By: Jamforchrist123
*****************************
All The Other Tabs Of This
Song Are Ok, But Are Missing
Some Things. I'm GOing To
Try TO Fix Those. Also I'm
Going To Try To Put The
Correct Number Of Times
To Play The Chord, So
If You See One Wrong,
Just Try To Figure It Out.
Here I Go:
Verse And Suff:
Guitar 1 & 2
 
 E -------
 B ------- 

[G] [-5--5--]  
[D] [-5--5--]  
[A] [-3--3--]  
 
 E ------- 

Cello Part...
Guitar 1 & 2
 
 E -------------------------------------
 B -------------------------------------
 G -------5--5-5-5--5-5---------------5-
 D -3--5--5--5-5-5--5-5-3--3-3-5--5-5-5-
 A -3--5--3--3-3-3--3-3-3--3-3-5--5-5-3-
 E -1--3----------------1--1-1-3--3-3--- 

Guitar 1 & 2
 
 E --------------------------------------
 B --------------------------------------
 G -5-5-5--5-5---------------------------
 D -5-5-5--5-5-3--3-3-5--5-5---3-3-3-3-3-
 A -3-3-3--3-3-3--3-3-5--5-5---3-3-3-3-3-
 E ------------1--1-1-3--3-3---1-1-1-1-1-

Guitar 1 & 2
 
 E -----------------------------------
 B -----------------------------------
 G -----------5-5-5-5-5-5-------------
 D -5-5-5-5-5-5-5-5-5-5-5-7-7-7-5-5-5-
 A -5-5-5-5-5-3-3-3-3-3-3-7-7-7-5-5-5-
 E -3-3-3-3-3-------------5-5-5-3-3-3-

Guitar 1 & 2
 
 E ---------------------------
 B ---------------------------
 G -------------------------5-
 D -3-3-3-3-3-3-5-5-5-5-5-5-5-
 A -3-3-3-3-3-3-5-5-5-5-5-5-3-
 E -1-1-1-1-1-1-3-3-3-3-3-3--- 

Guitar 2
 
 E ------------------------------------------------
 B ------------------------------------------------
 G -5-7-5-5-5-5-7-9-7-5-5-5-7-9-7-5-5-5-7-9-7-10-9-
 D -x-x-x-x-x-x-x-x-x-x-x-x-x-x-x-x-x-x-x-x-x-x--x- 2x
 A -3-5-3-3-3-3-5-7-5-3-3-3-5-7-5-3-3-3-5-7-5-8--7-
 E ------------------------------------------------ 

On The Second Time Of The That Last Riff Play:
Guitar 1
 
 E ----------------------------------------
 B ----------------------------------------
 G -5-5-5--5-------------------------------
 D -5-5-5--5--5-5-5--5--3-3-3--3--5-5-5--5-
 A -3-3-3--3--5-5-5--5--3-3-3--3--5-5-5--5-
 E -----------3-3-3--3--1-1-1--1--3-3-3--3- 

Guitar 2 Play This...
 
 E --------------------------------------
 B --------------------------------------
 G -5-7-9--5-7-9--9-9-9-9--9--9-9-9-9--9-
 D -x-x-x--x-x-x--x-x-x-x--x--x-x-x-x--x- 2x
 A -3-5-7--3-5-7--7-7-7-7--7--7-7-7-7--7-
 E -------------------------------------- 

While Guitar 1 Plays This...
 
 E ----------------------------------------
 B ----------------------------------------
 G ----------------------------------------
 D -7-7-7--7--5-5-5--5--3-3-3--3--3-3-3--3- 2x
 A -7-7-7--7--5-5-5--5--3-3-3--3--3-3-3--3-
 E -5-5-5--5--3-3-3--3--1-1-1--1--1-1-1--1- 

Guitar Whatever Plays This:
 
 E -----------------------
 B 1--3-1-1--3-1-1--3-1-1-
 G -----------------------
 D -----------------------
 A -----------------------
 E ----------------------- 

Chorus:
Guitar 1 & 2
 
 E ----------------------------------
 B ----------------------------------
 G -5-5--------------5-5-------------
 D -5-5-3-3-7-7-3-3--5-5-3-3-7-7-3-3-
 A -3-3-3-3-7-7-3-3--3-3-3-3-7-7-3-3-
 E -----1-1-5-5-1-1------1-1-5-5-1-1- 

Guitar 1 & 2
 
 E ---------------------------------
 B ---------------------------------
 G -5-5-5-5-------------------------
 D -5-5-5-5-3-3-3-3-7-7-7-7-3-3-3-3- 2x
 A -3-3-3-3-3-3-3-3-7-7-7-7-3-3-3-3-
 E ---------1-1-1-1-5-5-5-5-1-1-1-1- 

Verse 2
Guitar 1 & 2
 
 E ------------------------------
 B ------------------------------
 G -5--5-5-5--5-5----------------
 D -5--5-5-5--5-5-3--3-3-5--5-5-- 2x
 A -3--3-3-3--3-3-3--3-3-5--5-5--
 E ---------------1--1-1-3--3-3-- 

Guitar 1 & 2
 
 E -----------------------------------------
 B -----------------------------------------
 G ---------------------5-5-5-5-5---------5-
 D -3-3-3-3-3-5-5-5-5-5-5-5-5-5-5-7-5-3-5-5-
 A -3-3-3-3-3-5-5-5-5-5-3-3-3-3-3-7-5-3-5-3-
 E -1-1-1-1-1-3-3-3-3-3-----------5-3-1-3--- 

Guitar Whatever
 
 E -----------------------
 B -1-3-1-1--3-1-1--3-1-1-
 G -----------------------
 D -----------------------
 A -----------------------
 E ----------------------- 

Play Chorus
Guitar 2 Play This...
 
 E --------------------------------------
 B --------------------------------------
 G -5-7-9--5-7-9--9-9-9-9--9--9-9-9-9--9-
 D -x-x-x--x-x-x--x-x-x-x--x--x-x-x-x--x- 2x
 A -3-5-7--3-5-7--7-7-7-7--7--7-7-7-7--7-
 E -------------------------------------- 

While Guitar 1 Plays This...
 
 E ----------------------------------------
 B ----------------------------------------
 G ----------------------------------------
 D -7-7-7--7--5-5-5--5--3-3-3--3--3-3-3--3- 2x
 A -7-7-7--7--5-5-5--5--3-3-3--3--3-3-3--3-
 E -5-5-5--5--3-3-3--3--1-1-1--1--1-1-1--1- 

Guitar Whatever
 
 E -----------------------
 B -1-3-1-1--3-1-1--3-1-1-
 G -----------------------
 D -----------------------
 A -----------------------
 E ----------------------- 

Play Chorus 3 Times
[E] [---]  
[B] [---]  
[G] [-5-]  
[D] [-5-]  
[A] [-3-]  
[E] [---]  
Thats It!

Important: The song above is NOT stored on the Chordie server. The original song is hosted at www.christianguitar.org. Chordie works as a search engine and provides on-the-fly formatting. Chordie does not index songs against artists'/composers' will. To remove this song please click here.

Text color:
Chord color:
Chord grids: 
Font size:    
Page size: 

A B D E G
Rate #1 of 1 versions

Login - add to songbook

SHARE PAGE  




You need to log in to post comments