Guitar Tabs, Chords and Lyrics
Server problems seems to be fixed. Chordie has been experiencing problems with songs disappearing. These issues now seems to be fixed, but still verifying the fix. If you find anything strange, please email admin@chordie.com.


Indescribable  Chris Tomlin

Indescribable - Chris Tomlin
electric guitar tab
/ = slide up
\ = slide down
h = hammer down
intro
 
 [-------------------------------------]
 [----------12-11----9-----------------]
 [-----9h11-------11---9-9h11---(x2)---]
 [---9---------------------------------]
 [-------------------------------------]
 [-------------------------------------]

verse 1
 
 [---9/11-11\9-7---------]
 [---------------7-7/9---]
 [-----------------------]
 [-----------------------]
 [-----------------------]
 [-----------------------]

chorus
 
 [---------------------------------------14-------14-------14------
 [---11/12-12\11-11/12-12/14-14/16-16/17----12-12----12-12----12---
 [-----------------------------------------------------------------
 [-----------------------------------------------------------------
 [-----------------------------------------------------------------
 [-----------------------------------------------------------------
 14-------14----------14----14-------14---------
 ---11-11----11----11----11----12-12----12-12---
 -----------------------------------------------
 -----------------------------------------------
 -----------------------------------------------
 -----------------------------------------------
 ---14----14-------------------11-11-11------------
 ------12----11-11-11-12-12-12----------14-14-14---
 --------------------------------------------------
 --------------------------------------------------
 --------------------------------------------------
 --------------------------------------------------
 ---------------------------------------14-------14-------14------
 ---11/12-12\11-11/12-12/14-14/16-16/17----12-12----12-12----12---
 -----------------------------------------------------------------
 -----------------------------------------------------------------
 -----------------------------------------------------------------
 -----------------------------------------------------------------
 ---14-------14-------14----------------------------------------------]
 ------11-11----11-11----11-11h12----------12-11----9-----------------]
 -------------------------------------9h11-------11---9-9h11---(x2)---]
 -----------------------------------9---------------------------------]
 ---------------------------------------------------------------------]
 ---------------------------------------------------------------------]

(there is more than one electric guitar so I sort of combined their parts)
verse 2
 
 [------------------------------------------------------]
 [---------------------------------16/-14-12------------]
 [-------------------------------------------11-11h13---]
 [---9-11-13-13/14---13-16-14-13------------------------]
 [------------------------------------------------------]
 [------------------------------------------------------]

bridge
 
 [-------------------------------------------12-11---------------------------
 [----------------------------------12-12h14-------12-14-10-10h12---9-9h11---
 [----------9-8--------------(x2)--------------------------------------------
 [---9-9h11-----9-11-7-7h9---------------------------------------------------
 [---------------------------------------------------------------------------
 [---------------------------------------------------------------------------
 9-8--------------]
 ----9-11-7-7h9---]
 -----------------]
 -----------------]
 -----------------]
 -----------------]

ending
* - each notes 12 times
 
 [---------------------------------------11-11-11-------------------------------
 [---*12-*11-*9--9-9-9-11-11-11-12-12-12-------------------12-11----9--------(x2)
 [----------------------------------------------------9h11-------11---9-9h11----
 [--------------------------------------------------9---------------------------
 [------------------------------------------------------------------------------
 [------------------------------------------------------------------------------
 ------------12-11-------------------------]
 ---12-12h14-------12-14-10-10h12----------]
 -----------------------------------(x2)---]
 ------------------------------------------]
 ------------------------------------------]
 ------------------------------------------]

acoustic guitar chords
capo 2 or 4
Em = 022000
Dsus/F# = 2x0233
G = 320033
G2 = 320030
Am = x02210
Am7 = x02010
F = 133211
C2 = 032030
Bb = 133111
Dsus = xx0233
intro:
[Em]  
verses:
[Em] [Dsus/F#] [G] [G2]  
[Am] [Am7] [F]  
[Em] [Dsus/F#] [G] [G2]  
[Am] [Am7] [F]  
[C2]  
chorus:
[G] [Dsus]  
[C2] [Em]  
[C2]  
[G] [G2] [Dsus]  
[C2] [Em]  
[C2]  
bridge:
[F] [Bb]  
hope this helps
feel free to comment
just peanut butter and jambery
God Bless

Important: The song above is NOT stored on the Chordie server. The original song is hosted at www.christianguitar.org. Chordie works as a search engine and provides on-the-fly formatting. Chordie does not index songs against artists'/composers' will. To remove this song please click here.

Text color:
Chord color:
Chord grids: 
Font size:    
Page size: 

Am Am7 Bb C2 Dsus Dsus/F# Em F G G2
Rate #1 of 11 versions

Jango Player

Login - add to songbook

SHARE PAGE  




You need to log in to post comments