Guitar Tabs, Chords and Lyrics
Major upgrade!! After one year development the new version of Chordie is now online! Please give feedback.


Next Thing You Know  Matthew West

Song:Next Thing You Know
By:Matthew West
I'm pretty sure this at least 90% correct. Feel free to comment.
The song is in the key of F. Standard tuning.
Capo 1st fret. Tab relative to capo.
/=slide up
Intro: 2x
 
 e --------------------------------------------------------------------
 B --------------------------------------------------------------------
 G -2/4--4-4-4-4--4--4/6--6-6-6-6--4--4--4-4-4-4--4-----2-2-------2----
 D -4/6--6-6-6-6--4--6/7--7-7-7-7--6--6--6-6-6-6--4----2-2----2-2-2-2--
 A ---------------------------------------------------0-0-----0-4---4--
 E -------------------------------------------------------------------- 

Verse:
[E]The[B]n [A]thi[B]s a[E]fte[B]r [A]the last A chord:
 
 e --------------
 B --------2-----
 G --2-2---2--2--
 D --0-4------4--
 A --------------
 E -------------- 

Chorus:
[E] [B] [A] [B] [E] [B] [A]  
Chords: chords relative to capo
E A D G B e
E = 0 7 9 9 0 0
B = x 2 4 4 4 2
A = x 0 2 2 2 0

Important: The song above is NOT stored on the Chordie server. The original song is hosted at www.christianguitar.org. Chordie works as a search engine and provides on-the-fly formatting. Chordie does not index songs against artists'/composers' will. To remove this song please click here.

Text color:
Chord color:
Chord grids: 
Font size:    
Page size: 

A B E
Rate #1 of 1 versions

Login - add to songbook

SHARE PAGE  



You need to log in to post comments