Guitar Tabs, Chords and Lyrics
Server problems seems to be fixed. Chordie has been experiencing problems with songs disappearing. These issues now seems to be fixed, but still verifying the fix. If you find anything strange, please email admin@chordie.com.


The Last  Underoath

Title: The Last
Artist: Underoath
Drop-D
Guitar 1
intro (all hammer-ons and pull-offs)
 
 E -----------------------------------------------------------------------
 B -----------------------------------------------------------------------
 G -----------------------------------------------------------------------
 D -----------------------------------------------------------------------
 A h5p0h5p0h5p0h5p0-h8p0h8p0-h7p0h7p0-h5p0h5p0h5p0h5p0-h8p0h8p0-h7p0h7p0--
 D -----------------------------------------------------------------------
 E ---------------------------------------------------------------------
 B ---------------------------------------------------------------------
 G ---------------------------------------------------------------------
 D ---------------------------------------------------------------------
 A h5p1h5p1h5p1h5p1-h8p1h8p1-h7p1h7p1-h5p1h5p1h5p1-h8p1-h7p1-h10p1-h7p1-
 D ---------------------------------------------------------------------
 E -----------------------------------------------------------------------
 B -----------------------------------------------------------------------
 G -----------------------------------------------------------------------
 D -----------------------------------------------------------------------
 A h5p0h5p0h5p0h5p0-h8p0h8p0-h7p0h7p0-h5p0h5p0h5p0h5p0-h8p0h8p0-h7p0h7p0--
 D -----------------------------------------------------------------------
 E ----------------------------------------------------------------------------
 B ----------------------------------------------------------------------------
 G ----------------------------------------------------------------------------
 D ----------------------------------------------------------------------------
 A h5p1h5p1h5p1h5p1-h8p1h8p1-h7p1h7p1-h5p1-h7p1-h8p1-h5p1-h12p1-h8p1-h10p1-h7p1
 D ---------------------------------------------------------------------------- 

(repeat once)
(0:43)
 
 E -------------------------------------------------------------------
 B -------------------------------------------------------------------
 G -------------------------------------------------------------------
 D 0033003300330033--33--33--22--22--0033003300330033--33--33--22--22-
 A ----------------11--11--33--33--------------------11--11--33--33---
 D -------------------------------------------------------------------
 E -----------------------------------10-10-88----------10p8------------
 B -----10-10-----10-10--10-10--10-10---------10-10---------10p8--------
 G 10-10-----10-10-----99-----99-------------------10-10--------10p9p7\-
 D ---------------------------------------------------------------------
 A ---------------------------------------------------------------------
 D ---------------------------------------------------------------------
 E ------------------------------------------------88------------8h10\--
 B -----10-10-----10-10--10-10--10-10------88-10-10--------8h10p8-------
 G 10-10-----10-10-----99-----99------10-10----------9h10p9-------------
 D ---------------------------------------------------------------------
 A ---------------------------------------------------------------------
 D --------------------------------------------------------------------- 

(0:58)
 
 E ----------------------------------------------------------------
 B ----------------------------------------------------------------
 G ----------------------------------------------------------------
 D -----------------------------------------5558p5--777-10p7-------
 A 5558p5-5558p5-5558p5-5558p5-4447p4-4447p4-----------------------
 D ---------------------------------------------------------------- 

... ... ... ... ... ... ... ...
 
 E ----------------------------------------------------------------
 B ----------------------------------------------------------------
 G ----------------------------------------------------------------
 D -----------------------------------------5558p5--777-10p7-------
 A 5558p5-5558p5-5558p5-5558p5-4447p4-4447p4-----------------------
 D ---------------------------------------------------------------- 

... ... ... ... ... ... ... ...
 
 E ----------------------------------------------------------------
 B ----------------------------------------------------------------
 G ----------------------------------------------------------------
 D -------------------------5588-77-10-10-------------------------- 4x
 A 5588558855885588-44774477---------------------------------------
 D ---------------------------------------------------------------- 

(1:21)
 
 E --------------------------------------------------------------------
 B --------------------------------------------------------------------
 G -------------------------------------------------------------------- 

D 0000000044433311-0000000044433311-0000000044433311-0000000044433311-
A 0000000044433311-0000000044433311-0000000044433311-0000000044433311-
D 0000000044433311-0000000044433311-0000000044433311-0000000044433311-
................ ................ ................ ................
 
 E ----------------------------------------------------------------
 B ----------------------------------------------------------------
 G ----------------------------------------------------------------
 D -------------------------5588-77-10-10-------------------------- 4x
 A 5588558855885588-44774477---------------------------------------
 D ---------------------------------------------------------------- 

(1:51)
 
 E ----------------------------------------------------------------
 B ----------------------------------------------------------------
 G ----------------------------------------------------------------
 D 8--0-85--00-84--00-83-000000--00-85--00-84--00-83-000000--------
 A 8--0-85--00-84--00-83-000000--00-85--00-84--00-83-000000--------
 D 8--0-85--00-84--00-83-000000--00-85--00-84--00-83-000000-------- 

.. .. ...... .. .. .. ......
 
 E ----------------------------------------------------------------
 B ----------------------------------------------------------------
 G ----------------------------------------------------------------
 D 0-85x-0-84x-0-83x-000000--0-85x--0-84x--0-83x-000000------------ 2x
 A 0-85x-0-84x-0-83x-000000--0-85x--0-84x--0-83x-000000------------
 D 0-85x-0-84x-0-83x-000000--0-85x--0-84x--0-83x-000000------------ 

. . . ...... . . . ......
 
 E ----------------------------------------------------------------
 B ----------------------------------------------------------------
 G ----------------------------------------------------------------
 D 0-85--00-84--00-83-0000000000--00-85--00-84--00-83-0000000000--- 2x
 A 0-85--00-84--00-83-0000000000--00-85--00-84--00-83-0000000000---
 D 0-85--00-84--00-83-0000000000--00-85--00-84--00-83-0000000000--- 

.......... ..........
 
 E ----------------------------------------------------------------
 B ----------------------------------------------------------------
 G ----------------------------------------------------------------
 D 0-85x-0-84x-0-83x-000000--0-85x--0-84x--0-83x-000000------------
 A 0-85x-0-84x-0-83x-000000--0-85x--0-84x--0-83x-000000------------
 D 0-85x-0-84x-0-83x-000000--0-85x--0-84x--0-83x-000000------------ 

. . . ...... . . . ......
 
 E ----------------------------------------------------------------
 B ----------------------------------------------------------------
 G ----------------------------------------------------------------
 D 0-85x-0-84x-0-83x-000000--0-85x--0-84x--0-83x-00000~~-----------
 A 0-85x-0-84x-0-83x-000000--0-85x--0-84x--0-83x-00000~~-----------
 D 0-85x-0-84x-0-83x-000000--0-85x--0-84x--0-83x-00000~~----------- 

. . . ...... . . . .....
(2:35)
 
 E ----------------------------------------------------------------------
 B ----------------------------------------------------------------------
 G ----------------------------------------------------------------------
 D 1010101212121212--1414141515151515-1010101212121212--1414141515151515-
 A -x-x-x-x-x-x-x-x---x-x-x-x-x-x-x-x--x-x-x-x-x-x-x-x---x-x-x-x-x-x-x-x-
 D -8-8-81010101010--1212121313131313--8-8-81010101010--1212121313131313- 

^^^(repeat this line four times)^^^
(2:56)
 
 E -------------------------------------------------------------------
 B -------------------------------------------------------------------
 G 3333333333-555555-----------------3333333333-555555----------------
 D 3333333333-555555-----------------3333333333-555555----------------
 A 1111111111-333333--0-1-0-3-1-0----1111111111-333333--0-1-0-3-1-0---
 D ------------------5-----------3---------------------5-----------3--
 E -------------------------------------------------------------------
 B -------------------------------------------------------------------
 G 3333333333-555555-----------------3333333333-555555----------------
 D 3333333333-555555-----------------3333333333-555555----------------
 A 1111111111-333333--0-1-0-3-1-0----1111111111-333333--0-1-0-3-1-0---
 D ------------------5-----------3---------------------5-----------3--
 E ----------------------------------------------------------------------
 B ----------------------------------------------------------------------
 G ----------------------------------------------------------------------
 D 1010101212121212--1414141515151515-1010101212121212--1414141515151515-
 A -x-x-x-x-x-x-x-x---x-x-x-x-x-x-x-x--x-x-x-x-x-x-x-x---x-x-x-x-x-x-x-x-
 D -8-8-81010101010--1212121313131313--8-8-81010101010--1212121313131313- 

^^^(repeat this line four times)^^^
 
 E -------------------------------------------------------------------
 B -------------------------------------------------------------------
 G 3333333333-555555-----------------3333333333-555555----------------
 D 3333333333-555555-----------------3333333333-555555----------------
 A 1111111111-333333--0-1-0-3-1-0----1111111111-333333--0-1-0-3-1-0---
 D ------------------5-----------3---------------------5-----------3--
 E -------------------------------------------------------------------
 B -------------------------------------------------------------------
 G 3333333333-555555-----------------3333333333-555555----------------
 D 3333333333-555555-----------------3333333333-555555----------------
 A 1111111111-333333--0-1-0-3-1-0----1111111111-333333--0-1-0-3-1-0---
 D ------------------5-----------3---------------------5-----------3-- 

(3:56)
 
 E ------
 B ------
 G ------ 

D -0~~~-
A -0~~~-
D -0~~~-
SOLO (4:17)
 
 E ----------------------------------------------------------------
 B ----------------------------------------------------------------
 G ---------------------------------------------14~14-14p12h14-----
 D 7-7-5-7~-5h7-10~10-9h10p9-12~12-9h10-14~14~---------------------
 A ----------------------------------------------------------------
 D ---------------------------------------------------------------- 

.
 
 E -----------------------17-15-13-15-13-12-13~-13-12h13p12-12~12~-
 B ---------------17~-17~------------------------------------------
 G 16~16-14h16p14--------------------------------------------------
 D ----------------------------------------------------------------
 A ----------------------------------------------------------------
 D ----------------------------------------------------------------
 E 12-----------------------------------------------------------------
 B --15-13-15-13-12-13~-13-12h13p12-----------------------------------
 G -------------------------------------------------------------------
 D --------------------------------14~-14~--------------12------------
 A ---------------------------------------12-14-15-12-15--14~-14-12h14
 D ------------------------------------------------------------------- 

. . . . . . .
 
 E -----------------------------------------17-15-13-15-13-12-13~-13--
 B ----------------------------------17~-17~--------------------------
 G ------14-14-14-16b(17)-16-14h16p14---------------------------------
 D 14~14~-------------------------------------------------------------
 A -------------------------------------------------------------------
 D -------------------------------------------------------------------
 E 12h13p12-12~-12~-12---------------------------17~~~----------------
 B -------------------15-13-15-13-12-13~-12h13p12---------------------
 G -------------------------------------------------------------------
 D -------------------------------------------------------------------
 A -------------------------------------------------------------------
 D ------------------------------------------------------------------- 

end of solo (let ring out till 5:05)
 
 E ----------------------------------------------------------------
 B ----------------------------------------------------------------
 G ----------------------------------------------------------------
 D 0000003333-0000003333-0000003333-0000003333---------------------
 A 0000003333-0000003333-0000003333-0000003333---------------------
 D 0000003333-0000003333-0000003333-0000003333--------------------- 

...... .. ...... .. ...... .. ...... ..
 
 E -----------------------------------------------------------------------
 B -----------------------------------------------------------------------
 G -------------5h7---------------------------------5h7-------------------
 D 000000----5h7----00000-7h8p7-5h6p5--000000----5h7----00000-7h8p7-5h6p5-
 A 000000-5h7-------00000-7h8p7-5h6p5--000000-5h7-------00000-7h8p7-5h6p5-
 D 000000-----------00000-7h8p7-5h6p5--000000-----------00000-7h8p7-5h6p5- 

...... ..... ...... .....
 
 E -----------------------------------------------------------------------
 B -----------------------------------------------------------------------
 G -------------5h7---------------------------------5h7--------------5h7--
 D 000000----5h7----00000-7h8p7-5h6p5--000000----5h7----000000----5h7-----
 A 000000-5h7-------00000-7h8p7-5h6p5--000000-5h7-------000000-5h7--------
 D 000000-----------00000-7h8p7-5h6p5--000000-----------000000------------ 

...... ..... ...... ......
(5:34)
 
 E ----------------------------------------------------------------
 B ----------------------------------------------------------------
 G ----------------------------------------------------------------
 D 123-0-345-0-567-0-789\---123-0-345-0-567-0-789\-----------------
 A 123-0-345-0-567-0-789\---123-0-345-0-567-0-789\-2x--------------
 D 123-0-345-0-567-0-789\---123-0-345-0-567-0-789\-----------------
 E ----------------------------------------------------------------
 B ----------------------------------------------------------------
 G ----------------------------------------------------------------
 D 123-0-345-0-567-0-789\---123-0-345-0-567-0-789\-----------------
 A 123-0-345-0-567-0-789\---123-0-345-0-567-0-789\-2x--------------
 D 123-0-345-0-567-0-789\---123-0-345-0-567-0-789\----------------- 

.................. ..................
 
 E ----------------------------------------------------------------
 B ----------------------------------------------------------------
 G ----------------------------------------------------------------
 D ------345-0-------789\---------345-0-------789\-------0x--------
 A ------345-0-------789\---------345-0-------789\-2x----0x--------
 D ------345-0-------789\---------345-0-------789\-------0x-------- 

(6:25)
 
 E ---------------------------------------------------------------
 B ---------------------------------------------------------------
 G --9----/-14--------9----/-14-----------------------------------
 D --x-32x/--x-32x----x-32x/--x-32x-------------------------------
 A --7----/-12--------7----/-12-----------------------------------
 D ---------------------------------------------------------------
 E ----------------------------------------------------------------
 B ---------------------------------------------------------------- 

[G] [9999999999999999999999999999999914141414141414141414141414141414]  
 
 D ------(fast-picking)--------------------------------------------
 A ----------------------------------------------------------------
 D ----------------------------------------------------------------
 E ----------------------------------------------------------------
 B ----------------------------------------------------------------
 G 14\12\10101010---10/12/14141414---12\10\9-----------------------
 D ----------------------------------------------------------------
 A ----------------------------------------------------------------
 D ----------------------------------------------------------------
 E ----------------------------------------------------------------
 B ---------------------------------------------------------------- 

[G] [9999999999999999999999999999999914141414141414141414141414141414]  
 
 D ------(fast-picking)--------------------------------------------
 A ----------------------------------------------------------------
 D ----------------------------------------------------------------
 E 12121212121212121212121212121212--------------------------------
 B ----------------------------------------------------------------
 G ----------------------------------------------------------------
 D ----------------------------------------------------------------
 A ----------------------------------------------------------------
 D ----------------------------------------------------------------
 E --------------------------------------------------------------------
 B --------------------------------------------------------------------
 G -------------------------------------------------------------------- 

[D]A [2222222222222222222222222222222277777777777777777777777777777777----]2222222222222222222222222222222277777777777777777777777777777777-2x-
[D] [2222222222222222222222222222222277777777777777777777777777777777----]................................................................
 
 E ----------------------------------------------------------------
 B ---------------------------------------------------------------- 

[G] [9999999999999999999999999999999914141414141414141414141414141414]  
 
 D ------(fast-picking)--------------------------------------------
 A ----------------------------------------------------------------
 D ----------------------------------------------------------------
 E ----------------------------------------------------------------
 B ----------------------------------------------------------------
 G 14\12\10101010---10/12/14141414---12\10\9-----------------------
 D ----------------------------------------------------------------
 A ----------------------------------------------------------------
 D ----------------------------------------------------------------
 E ----------------------------------------------------------------
 B ---------------------------------------------------------------- 

[G] [9999999999999999999999999999999914141414141414141414141414141414]  
 
 D ------(fast-picking)--------------------------------------------
 A ----------------------------------------------------------------
 D ----------------------------------------------------------------
 E ----------------------------12~~~~~~~~~-------------------------
 B ----------------------------------------------------------------
 G 12121212121212121212-12-12--------------------------------------
 D ----------------------------------------------------------------
 A ----------------------------------------------------------------
 D ---------------------------------------------------------------- 

[End]  
Guitar 2
(0:26)
 
 E ----------------------------------------------------------------
 B ----------------------------------------------------------------
 G ----------------------------------------------------------------
 D --0~------------88x----------0~------------88x------------------
 A --0~------------88x----------0~------------88x------------------
 D --0~------------88x----------0~------------88x------------------ 

(0:42) end
 
 E ----------------------------------------------------------------- --
 B ----------------------------------------------------------------- --
 G ----------------3333333355555555-----------------3333333355555555 -- 

D 00000000000000003333333355555555-00000000000000003333333355555555 0x
A 00000000000000001111111133333333-00000000000000001111111133333333 0x
 
 D 0000000000000000-----------------0000000000000000---------------- 0x 

^^^(repeat this line two times)^^^
(1:06)
 
 E ----------------------------------------------------------------
 B ----------------------------------------------------------------
 G ---------------------------------------------------------------- 

D 0000000000000000444444443333111100000000000000004444444433331111
A 0000000000000000444444443333111100000000000000004444444433331111
D 0000000000000000444444443333111100000000000000004444444433331111
^^^(repeat this line two times)^^^
 
 E --------------------------------------------------------------------
 B --------------------------------------------------------------------
 G -------------------------------------------------------------------- 

D 0000000044433311-0000000044433311-0000000044433311-0000000044433311-
A 0000000044433311-0000000044433311-0000000044433311-0000000044433311-
D 0000000044433311-0000000044433311-0000000044433311-0000000044433311-
................ ................ ................ ................
 
 E ---------------------------------------------------------------- ---
 B ---------------------------------------------------------------- ---
 G ---------------------------------------------------------------- --- 

D 0000000000000000444444443333111100000000000000004444444433331111 -0x
A 0000000000000000444444443333111100000000000000004444444433331111 -0x
D 0000000000000000444444443333111100000000000000004444444433331111 -0x
^^^(repeat this line two times)^^^ ^end^
(1:57)
 
 E ----------------------------------------------------------------
 B ----------------------------------------------------------------
 G ----------------------------------------------------------------
 D 000000----0-85x--0-84x--0-83x-000000--0-85x--0-84x--0-83x-000000
 A 000000----0-85x--0-84x--0-83x-000000--0-85x--0-84x--0-83x-000000
 D 000000----0-85x--0-84x--0-83x-000000--0-85x--0-84x--0-83x-000000 

...... . . . ...... . . . ......
 
 E ----------------------------------------------------------------
 B ----------------------------------------------------------------
 G ----------------------------------------------------------------
 D 0-85x-0-84x-0-83x-000000--0-85x--0-84x--0-83x-000000------------
 A 0-85x-0-84x-0-83x-000000--0-85x--0-84x--0-83x-000000------------
 D 0-85x-0-84x-0-83x-000000--0-85x--0-84x--0-83x-000000------------ 

. . . ...... . . . ......
 
 E ----------------------------------------------------------------
 B ----------------------------------------------------------------
 G ----------------------------------------------------------------
 D 0-85--00-84--00-83-0000000000--00-85--00-84--00-83-0000000000--- 2x
 A 0-85--00-84--00-83-0000000000--00-85--00-84--00-83-0000000000---
 D 0-85--00-84--00-83-0000000000--00-85--00-84--00-83-0000000000--- 

.......... ..........
 
 E ----------------------------------------------------------------
 B ----------------------------------------------------------------
 G ----------------------------------------------------------------
 D 0-85x-0-84x-0-83x-000000--0-85x--0-84x--0-83x-000000------------
 A 0-85x-0-84x-0-83x-000000--0-85x--0-84x--0-83x-000000------------
 D 0-85x-0-84x-0-83x-000000--0-85x--0-84x--0-83x-000000------------ 

. . . ...... . . . ......
 
 E ----------------------------------------------------------------
 B ----------------------------------------------------------------
 G ----------------------------------------------------------------
 D 0-85x-0-84x-0-83x-000000--0-85x--0-84x--0-83x-00000~~------------
 A 0-85x-0-84x-0-83x-000000--0-85x--0-84x--0-83x-00000~~------------
 D 0-85x-0-84x-0-83x-000000--0-85x--0-84x--0-83x-00000~~------------ 

. . . ...... . . . .....
(2:37) (there is something more at the end of each line here, but
it's really hard to hear.) \/
 
 E ----------------------------------------------------------------
 B ----------------------------------------------------------------
 G ----------------------------------------------------------------
 D ----------------------------------------------------------------
 A ----------------11111111111111113333333333333333----------------
 D 0000000000000000------------------------------------------------
 E ----------------------------------------------------------------
 B ----------------------------------------------------------------
 G ----------------------------------------------------------------
 D ----------------------------------------------------------------
 A --------------------------------11111111111111113333333333333333
 D 00000000000000000000000000000000--------------------------------
 E ----------------------------------------------------------------
 B ----------------------------------------------------------------
 G 3333333333-555555---------------3333333333-555555---------------
 D 3333333333-555555---------------3333333333-555555--------------- 2x
 A 1111111111-333333---------------1111111111-333333---------------
 D -----------------0-2-3-0-5-3-2-3-----------------0-2-3-0-5-3-2-3
 E ----------------------------------------------------------------
 B ----------------------------------------------------------------
 G ----------------------------------------------------------------
 D ---------------------------------------------------------------- 2x
 A --------------------------------11111111111111113333333333333333
 D 00000000000000000000000000000000--------------------------------
 E ----------------------------------------------------------------
 B ----------------------------------------------------------------
 G 3333333333-555555---------------3333333333-555555---------------
 D 3333333333-555555---------------3333333333-555555--------------- 2x
 A 1111111111-333333---------------1111111111-333333---------------
 D -----------------0-2-3-0-5-3-2-3-----------------0-2-3-0-5-3-2-3 

[E] [----]  
[B] [----]  
[G]D [----]-0~-
A -0~-
D -0~-
SOLO
enter at (4:37)
 
 E ----------------------------------------------------------------
 B ----------------------------------------------------------------
 G 2222222222-55555-----------2222222222-55555---------------------
 D 2222222222-55555-55555-----2222222222-55555-55555--------------- 2x
 A 0000000000-33333-55555-----0000000000-33333-55555---------------
 D -----------------55555----------------------55555--------------- 

end of solo
(4:55)
 
 E ----------------------------------------------------------------
 B ----------------------------------------------------------------
 G ----------------------------------------------------------------
 D 0-0-0-0--3-3-3-33------0-0-0-0--3-3-3-33------------------------ 4x
 A 0-0-0-0--3-3-3-33------0-0-0-0--3-3-3-33------------------------
 D 0-0-0-0--3-3-3-33------0-0-0-0--3-3-3-33------------------------ 

. .
 
 E ------------------------------------------------------------------
 B ------------------------------------------------------------------
 G ------------------------------------------------------------------
 D 0-0-00-0-00-00~--0-0-00-0-00-00~--0-0-00-0-00-00~--0-0-00-0-00-00~ 2x
 A 0-0-00-0-00-00~--0-0-00-0-00-00~--0-0-00-0-00-00~--0-0-00-0-00-00~
 D 0-0-00-0-00-00~--0-0-00-0-00-00~--0-0-00-0-00-00~--0-0-00-0-00-00~ 

.............. .............. .............. ..............
(5:40)
 
 E ----------------------------------------------------------------
 B ----------------------------------------------------------------
 G ----------------------------------------------------------------
 D 123-0-345-0-567-0-789\---123-0-345-0-567-0-789\-----------------
 A 123-0-345-0-567-0-789\---123-0-345-0-567-0-789\-----------------
 D 123-0-345-0-567-0-789\---123-0-345-0-567-0-789\-----------------
 E ----------------------------------------------------------------
 B ----------------------------------------------------------------
 G ----------------------------------------------------------------
 D 123-0-345-0-567-0-789\---123-0-345-0-567-0-789\-----------------
 A 123-0-345-0-567-0-789\---123-0-345-0-567-0-789\-2x--------------
 D 123-0-345-0-567-0-789\---123-0-345-0-567-0-789\----------------- 

.................. ..................
 
 E ----------------------------------------------------------------
 B ----------------------------------------------------------------
 G ----------------------------------------------------------------
 D 123-0-------567-0--------123-0-------567-0-----------0x---------
 A 123-0-------567-0--------123-0-------567-0------2x---0x---------
 D 123-0-------567-0--------123-0-------567-0-----------0x--------- 

(6:33)
 
 E ---------------------------------------------------------------
 B ---------------------------------------------------------------
 G --9----/-14--------9----/-14-----------------------------------
 D --x-32x/--x-32x----x-32x/--x-32x------------------------------- 2x
 A --7----/-12--------7----/-12-----------------------------------
 D ---------------------------------------------------------------
 E --------------------------------------------------------------------
 B --------------------------------------------------------------------
 G -------------------------------------------------------------------- 

[D]A [2222222222222222222222222222222277777777777777777777777777777777----]2222222222222222222222222222222277777777777777777777777777777777-2x-
[D] [2222222222222222222222222222222277777777777777777777777777777777----]................................................................
 
 E ---------------------------------------------------------------
 B ---------------------------------------------------------------
 G --9----/-14--------9----/-14-----------------------------------
 D --x-32x/--x-32x----x-32x/--x-32x-------------------------------
 A --7----/-12--------7----/-12-----------------------------------
 D ---------------------------------------------------------------
 E ----------------------------------------------------------------
 B ----------------------------------------------------------------
 G -12~----9~~~~---------------------------------------------------
 D --x~----x-------------------------------------------------------
 A -10~----7~~~~---------------------------------------------------
 D ---------------------------------------------------------------- 

[End] phew! that took forever. Great Song! This tab is very close to 100% correct,
except for some crazy hard to hear parts. PLEASE RATE!!!

Important: The song above is NOT stored on the Chordie server. The original song is hosted at www.christianguitar.org. Chordie works as a search engine and provides on-the-fly formatting. Chordie does not index songs against artists'/composers' will. To remove this song please click here.

Text color:
Chord color:
Chord grids: 
Font size:    
Page size: 

B D E G
Rate #1 of 1 versions

Jango Player

Login - add to songbook

SHARE PAGE  



You need to log in to post comments