Guitar Tabs, Chords and Lyrics
Major upgrade!! After one year development the new version of Chordie is now online! Please give feedback.


Now Is the Time  Delirious?

Standard Tuning
Key: D
Intro:
[G] [-] [A] [-] [D]  
 
 -------------------------------------------------------------------------------
 -------------------------------------------------------------------------------
 ---9-7--9-7--2-----7-9-7-7-7--9-7-7-7--2----7-9-7-7-7--9-7-7-7--2-----7/14--
 -------------------------------------------------------------------------------
 -------------------------------------------------------------------------------
 ------------------------------------------------------------------------------- 

Alternate Intro (Main Chord Shape Throughout Song):
 
 --- -----------------------------------
 -5- -5---5----5--------5---------------
 -7- --7---7----7-7-7-7--7-7-7-7-------
 -7- -------7---------------------7-----
 --- -----------------------------------
 --- ----------------------------------- 

Verse (Middle): See Intro
Verse (Into Chorus):
 
 -------------------------------------
 --5-5-5-5-5-5-5-5-7-7-7-7-8-8-8-8--
 --7-7-7-7-7-7-7-7-7-7-7-7-7-7-7-7--
 -------------------------------------
 -------------------------------------
 ------------------------------------- 

Chorus:
(Twice)
 
 -------------------------------------------------------------
 --5-5-5-5-5-5-5-5-5-5-5-5-5-5-5-5-7-7-7-7-7-7-7-7-8-8-8-8--
 --7-7-7-7-7-7-7-7-7-7-7-7-7-7-7-7-7-7-7-7-7-7-7-7-7-7-7-7--
 -------------------------------------------------------------
 -------------------------------------------------------------
 ------------------------------------------------------------- 

(Twice)
 
 ------------------------------
 --5-5-5-5-5-5-5-5-7/8-8-8-8--
 --7-7-7-7-7-7-7-7-7-7-7-7-7--
 ------------------------------
 ------------------------------
 ------------------------------ 

Chorus (Ending):
 
 ----------------------------------
 --7/8-8-8-8-8-8-8-8-10-10-10-10--
 --7-7-7-7-7-7-7-7-7-7--7--7--7---
 ----------------------------------
 ----------------------------------
 ---------------------------------- 


Important: The song above is NOT stored on the Chordie server. The original song is hosted at www.christianguitar.org. Chordie works as a search engine and provides on-the-fly formatting. Chordie does not index songs against artists'/composers' will. To remove this song please click here.

Text color:
Chord color:
Chord grids: 
Font size:    
Page size: 

A D G
Rate #3 of 5 versions

Login - add to songbook

SHARE PAGE  




You need to log in to post comments