Guitar Tabs, Chords and Lyrics
Server problems seems to be fixed. Chordie has been experiencing problems with songs disappearing. These issues now seems to be fixed, but still verifying the fix. If you find anything strange, please email admin@chordie.com.


Mighty Is the Power of the Cross  Chris Tomlin

( to the web admins - this is to append to the existing tab that I submitted
some months back, which was just the intro of this song. this tab gets
through just about all of the song. thanks. )
[G] [C]  
 
 ----------------------------------------------------------------
 0-----0-------------------------0h1---1-------0-----------------
 ----------0---2-------0-------0-----------0-----------2-------0- intro (twice)
 ----0-------0-------0-------0-------2-------2-------0-------0---
 --------------------------------3-------3-------3-------3-------
 3-------3-------3-------3---------------------------------------

1 * 2 * 3 * 4 * 5 * 6 * 7 * 8 * 1 * 2 * 3 * 4 * 5 * 6 * 7 * 8 *
[G] [Em]  
 
 ----------------------------------------------0-----------------
 0-----0-----------------------------------------------0---------
 ----------0---2-------0---------------0---0---------0---------0- what can take
 ----0-------0-------0-----0---0-----2-------2---------------0---
 ----------------------------------------------------------------
 3-------3-------3-------3---2---0-------0-------0-------0-------

1 * 2 * 3 * 4 * 5 * 6 * 7 * 8 * 1 * 2 * 3 * 4 * 5 * 6 * 7 * 8 *
[C] [D/F#]  
 
 --------------0-------------------------------0-----------------
 0h1---1---1-----------1---------------------3---------3---------
 ------------0-------0---------0-------2---2---------2-------2--- what can heal
 ----2-----------------------2-------0---------------------0-----
 3-------3-------3-------3---------------------------------------
 --------------------------------2-------2-------2-------2-------

1 * 2 * 3 * 4 * 5 * 6 * 7 * 8 * 1 * 2 * 3 * 4 * 5 * 6 * 7 * 8 *
[G] [Em]  
 
 ----------------------------------------------0-----------------
 0-----0-----------------------------------------------0---------
 ----------0---2-------0---------------0---0---------0---------0- what can fill
 ----0-------0-------0-----0---0-----2-------2---------------0---
 ----------------------------------------------------------------
 3-------3-------3-------3---2---0-------0-------0-------0-------

1 * 2 * 3 * 4 * 5 * 6 * 7 * 8 * 1 * 2 * 3 * 4 * 5 * 6 * 7 * 8 *
[C] [D]  
 
 ----------------------------------------------0-----------------
 ------1---------------1---------------3---------------2---------
 ----0-------------------------------2-------2-------2----------- brokenness
 --2-----------0---2-----------2p0-------0-----------------------
 3-----------------------------------------------------------0h2-
 ----------------------------------------------------------------

1 * 2 * 3 * 4 * 5 * 6 * 7 * 8 * 1 * 2 * 3 * 4 * 5 * 6 * 7 * 8 *
[C] [D] [G] 
 
 --------------------------------0-------------------------------
 3---------------3-------------3---------3-----------------------
 --------0---------------0------------------0----------0-------0- (chorus)
 ------2-------2-------2-----2-----------------------0-------0---
 3-------------------------------0---0-------------------0h2-----
 ------------------------------------------------3---------------

1 * 2 * 3 * 4 * 5 * 6 * 7 * 8 * 1 * 2 * 3 * 4 * 5 * 6 * 7 * 8 *
[C] [G/B] [D]  
 
 ----------------------------------------3-------0h2-------------
 --------------1---------3-------------3-----3---------3---------
 ----0-----------------0-----0-------2---------2-----2---------0- is the holy
 --------0h2---------0-----0-----0---------------------------0---
 3---------------2---------------------------------------0h2-----
 ----------------------------------------------------------------

1 * 2 * 3 * 4 * 5 * 6 * 7 * 8 * 1 * 2 * 3 * 4 * 5 * 6 * 7 * 8 *
[C] [D] [G] 
 
 --------------------------------0-------------------------------
 3---------------3-------------3---------3-----------------------
 --------0---------------0------------------0---------0-------0-- where the lamb
 ------2-------2-------2-----2-----------------------0-------0---
 3-------------------------------0---0-------------------0h2-----
 ------------------------------------------------3---------------

1 * 2 * 3 * 4 * 5 * 6 * 7 * 8 * 1 * 2 * 3 * 4 * 5 * 6 * 7 * 8 *
[C] [G/B] [D]  
 
 ----------------------------------------3-------0h2-------------
 --------------1---------3-------------3-----3---------3---------
 ----0-----------------0-----0-------2---------2-----2---------0- is the holy
 --------0h2---------0-----0-----0---------------0-----------0---
 3---------------2---------------------------------------0h2-----
 ----------------------------------------------------------------

1 * 2 * 3 * 4 * 5 * 6 * 7 * 8 * 1 * 2 * 3 * 4 * 5 * 6 * 7 * 8 *
[C] [Em7] [D]  
 
 --------------------------------0h2-----------------------------
 3---------------------------------------------------------------
 ----------------0---------------2------------------------------- mighty is
 ----------------0---------------0-------------------------------
 3---------------2-----------------------------------------------
 ----------------0-----------------------------------------------

1 * 2 * 3 * 4 * 5 * 6 * 7 * 8 * 1 * 2 * 3 * 4 * 5 * 6 * 7 * 8 *
bridge:
[C] [G/B] [C] [G/B]  
[C] [G/B] [A7s] [D/F#]  
C x3201x
G/B x2003x

Important: The song above is NOT stored on the Chordie server. The original song is hosted at www.christianguitar.org. Chordie works as a search engine and provides on-the-fly formatting. Chordie does not index songs against artists'/composers' will. To remove this song please click here.

Text color:
Chord color:
Chord grids: 
Font size:    
Page size: 

C D D/F# Em Em7 G G/B
Rate #1 of 8 versions

Login - add to songbook

SHARE PAGE  




You need to log in to post comments