Guitar Tabs, Chords and Lyrics
Server problems seems to be fixed. Chordie has been experiencing problems with songs disappearing. These issues now seems to be fixed, but still verifying the fix. If you find anything strange, please email admin@chordie.com.


Recess  Hawk Nelson

Ok I think the real song is in tuned to Db but this sounds similar
After the drum intro
 
 e-------------------------------------------------------
 b-------------------------------------------------------
 g--4--------4---------444---4-----4-----4-----4---------
 d--4--------4---------444---4--2--4--3--4--4--4---------repeat the palm mute on forward
 a--2--------2---------222---2--2--2--3--2--4--2---------
 E------------------------------0-----1-----2------------

p.m.
then I think you just keep doing the B5 and then a little before the solo you switch to F#5
I'm not sure about the solo but it works for me.
[B5] [F#5] [B5]  
 
 e--14b14b14b14b12---------------------1214121412---12---
 b----------------14-12----14-----14-12-------------12---
 g----------------------14----1414-----------------------
 d-------------------------------------------------------
 a-------------------------------------------------------
 E-------------------------------------------------------

It's probably not even close to the real thing but you get the idea.
I did this in one afternoon. Please post your corrections.

Important: The song above is NOT stored on the Chordie server. The original song is hosted at www.christianguitar.org. Chordie works as a search engine and provides on-the-fly formatting. Chordie does not index songs against artists'/composers' will. To remove this song please click here.

Text color:
Chord color:
Chord grids: 
Font size:    
Page size: 

B5 F#5
Rate #1 of 1 versions

Jango Player

Login - add to songbook

SHARE PAGE  



You need to log in to post comments