Guitar Tabs, Chords and Lyrics
Server problems seems to be fixed. Chordie has been experiencing problems with songs disappearing. These issues now seems to be fixed, but still verifying the fix. If you find anything strange, please email admin@chordie.com.


Goodbye for Now  P.O.D.

Copyright 2006 Atlantic Records
Drop D Tuning D-A-D-G-B-E
Gtr. 1=D-A-D-G-B-E
Gtr. 2=D-A-D-G-B-E
Gtr. 3 (Capo 5)=G-D-G-C-E-A (all Gtr. 3 riffs/chords are relative to Capo)
Am7=x-0-2-0-1-x
C2 =x-3-2-0-3-x
F2 =x-3-3-2-1-x
Dm3=0-0-0-2-0-0
Am =x-0-2-2-1-0
C =x-3-2-0-3-0
F =x-3-3-2-1-0
Dm2=x-x-0-2-3-0
Dm =x-x-0-2-3-1
Intro
 
 G[-----------------------------------2----2---------------------]
 D[-----7----7--------10----10------0----0----0-----7----7-------]
 A[---5----5----5---8-----8-----8-1----1----1-----5----5----5----]
 D[-0----0----0---0-----0-----0-----------------5----5----5------]

Gtr. 2
 
 D[-----------------------------------------------------7h8/7s5/7--]
 A[----------------------------------------------------------------]

Gtr. 3
 
 E[-----------------------------------------------------5h6/5s3/5--]
 C[----------------------------------------------------------------]

Verse 1
Gtr. 1
 
 G[-----------------------------------2----2---------------------]
 D[-----7----7--------10----10------0----0----0-----7----7-------]
 A[---5----5----5---8-----8-----8-1----1----1-----5----5----5----]x2
 D[-0----0----0---0-----0-----0-----------------5----5----5------]

Gtr. 2
 
 D[-----------------------------------------------------7h8/7s5/7--]
 A[----------------------------------------------------------------]x2

Gtr. 3
 
 E[-----------------------------------------------------5h6/5s3/5--]
 C[----------------------------------------------------------------]x2

Then
Gtr. 1
 
 G[-----------------------------------2----2---------------------]
 D[-----7----7--------10----10------0----0----0-----7----7-------]
 A[---5----5----5---8-----8-----8-1----1----1-----5----5----5----]x2
 D[-0----0----0---0-----0-----0-----------------5----5----5------]

Gtr. 2
 
 G[--------5-5-5h7--------5-5-5h7----]
 D[-5h7-7----------5p3-3-------------]x4

Gtr. 3
 
 E[-----------------------------------------------------5h6/5s3/5--]
 C[----------------------------------------------------------------]x2

Pre-Chorus
Gtr. 3
[Am7]Gtr.[C2] 2[F2] [Dm3]
 
 B[--------------------------------------------------10h11/10s8/10--]x2

Chorus
Gtr. 3
[Am]Gtr[C]. [F]2[Dm3]
 
 B[--------------------------------------------------10h11/10s8/10--]x2

Then
Gtr. 3
[Am] [C] [F] [Dm3] [Dm2-Dm-Dm2]  
Verse 2
(Same as Verse 1)
Pre-Chorus
Chorus 2
Gtr. 3
[Am]Gtr[C]. [F]2[Dm3]
 
 B[--------------------------------------------------10h11/10s8/10--]x2

Then
Gtr. 3
Am C F Dm3 Dm2-Dm-Dm2 x2
Bridge
Gtr. 1
 
 E[---------------------------------------1----]
 B[--------------------------------------------]
 G[----------------5---------------------------]
 D[-0----3----0----5----0----3----0----3-------]
 A[-0----1----0----3----0----1----0----1-------]
 D[-0----1----0---------0----1----0----1-------]

Gtr. 2
 
 G[-9---10----9----7----9---10----9---10-------]
 D[-x----x----x----x----x----x----x----x-------]
 A[-7----8----7----5----7----8----7----8-------]

Chorus 3
Gtr. 3
Am C F Dm3 x2
Gtr. 2
 
 B[--------------------------------------------------10h11/10s8/10--]x4

Then
Gtr. 3
Am C F Dm3 Dm2-Dm-Dm2 x2
Then
Gtr. 3
Am C F Dm3 Dm2-Dm-Dm2 x3
Gtr. 2
 
 G[-9--10--12--9--10--12----]
 D[-x---x---x--x---x---x----]x2
 A[-7---8--10--7---8--10----]
 G[-9--10--9--7----]
 D[-x---x--x--x----]
 A[-7---8--7--5----]
 G[-9--10--12--9--10--12----]
 D[-x---x---x--x---x---x----]x2
 A[-7---8--10--7---8--10----]

Ending
Gtr. 1
 
 G[-----------------------------------2----2---------------------]
 D[-----7----7--------10----10------0----0----0-----7----7-------]
 A[---5----5----5---8-----8-----8-1----1----1-----5----5----5----]
 D[-0----0----0---0-----0-----0-----------------5----5----5------]

Gtr. 2
 
 D[-----------------------------------------------------7h8/7s5/7--]
 A[----------------------------------------------------------------]

Gtr. 3
 
 E[-5------5-----5------------5----]
 B[--6-5h6--6-5h6-6-5h6-6-5---6----]
 G[---7---7--7-----7---7-7-7--7----]

Tabbed by Adam K

Important: The song above is NOT stored on the Chordie server. The original song is hosted at www.christianguitar.org. Chordie works as a search engine and provides on-the-fly formatting. Chordie does not index songs against artists'/composers' will. To remove this song please click here.

Text color:
Chord color:
Chord grids: 
Font size:    
Page size: 

Am Am7 C C2 F F2
Rate #1 of 5 versions

Login - add to songbook

SHARE PAGE  




You need to log in to post comments