Guitar Tabs, Chords and Lyrics
Server problems seems to be fixed. Chordie has been experiencing problems with songs disappearing. These issues now seems to be fixed, but still verifying the fix. If you find anything strange, please email admin@chordie.com.


Strength of My Life  P.O.D.

Copyright 2006 Atlantic Records
Drop C Tuning C-G-C-F-A-D
Ska aka "Reggae" Chords=
Dm=x-x-x-10-10-10
C=x-x-x-9-8-8
C2=x-x-5-5-5-x
 
 Gm=-x-x-x-7-8-6

F=x-x-x-5-6-5
Intro
Gtr. 2
 
 D[-----------10------------------------------------10--------]
 A[-10--------10--------10---------------10---------10--------]
 F[-10--------10--------10---------------10---------10--------]
 C[-12--------12--------12---------------12---------12--------]

Verse 1
Gtr. 1
Dm Dm C C x4
Chorus
Gtr. 1
[Gm] [Gm] [F] [F] [C2] [C2] [C2] [C2]  
[Gm] [Gm] [F] [F] [C] [C] [C] [C]  
[Gm] [Gm] [F] [F] [C] [C] [C] [C]  
[Gm] [Gm] [F] [F] [C2] [C2] [C2] [C2]  
Gtr. 2
 
 D[-6---6-----6--5---5-----5--0---0-----0----]
 A[---8-----8------6-----6------1-----1------]x4
 F[-------7------------5------------0--------]

Verse 2
Gtr. 2
 
 D[-----------10------------------10--------]
 A[-10--------10--------10--------10--------]
 F[-10--------10--------10--------10--------]
 C[-12--------12--------12--------12--------]

Then
Gtr. 1
Dm Dm C C x8
Chorus 2
Gtr. 1
Gm Gm F F C C C C x2
Gm Gm F F C2 C2 C2 C2 x2
Gtr. 2
 
 D[-6---6-----6--5---5-----5--0---0-----0----]
 A[---8-----8------6-----6------1-----1------]x4
 F[-------7------------5------------0--------]

Interlude
Gtr. 2
 
 D[-----------10------------------10--------]
 A[-10--------10--------10--------10--------]
 F[-10--------10--------10--------10--------]
 C[-12--------12--------12--------12--------]

Then
Gtr. 1
Dm Dm C C Dm Dm Dm Dm x5
Gtr. 2
 
 D[-----------10------------------10--------]
 A[-10--------10--------10--------10--------]
 F[-10--------10--------10--------10--------]
 C[-12--------12--------12--------12--------]

Then
Gtr. 2
 
 D[-6---6-----6--5---5-----5--0---0-----0----]
 A[---8-----8------6-----6------1-----1------]x2
 F[-------7------------5------------0--------]

Gtr. 1
[Gm] [Gm] [F] [F] [C2] [C2] [C2] [C2]  
[Gm] [Gm] [F] [F] [C] [C] [C] [C]  
Ending
Dm Dm C C x2
Dm Dm Dm Dm x2
Tabbed by Adam K

Important: The song above is NOT stored on the Chordie server. The original song is hosted at www.christianguitar.org. Chordie works as a search engine and provides on-the-fly formatting. Chordie does not index songs against artists'/composers' will. To remove this song please click here.

Text color:
Chord color:
Chord grids: 
Font size:    
Page size: 

C C2 F Gm
Rate #1 of 5 versions

Login - add to songbook

SHARE PAGE  



You need to log in to post comments