Guitar Tabs, Chords and Lyrics
Update 25:10. 13:00. Site is back up running again. Songbooks are recovered. Woring on getting search back up..


This Time Is the Last Time  Mae

Song: This Time Is The Last Time
Band: Mae
CD: Destination: Beautiful
Tabbed By: Devin Schreck (neojesusfreak247@yahoo.com)
The one that is up right now is good, but it is not correct.
There are some issues with the verses so I just decided to do my own version.
Verse Cords:
[C/A] [Fmaj7/C] [D2/A] [G/A] [D5]  
 
 E----- ------- ---- ----- ----
 B--12- --5---- -2-- --8-- ----
 G--12- --5---- -3-- --7-- --7-
 D--10- --3---- -0-- --5-- --7-
 A--0-- --3---- -0-- --0-- --5-
 E----- ------- ---- ----- ---- 

Verse 1: C/A, Fmaj7/C, D2/A, C/A, Fmaj7/C, G/A, D5
Then do this riff:
Acoustic Guitar riff X2
 
 E--------------------------------- ----------------------------0---
 B-----------------------------0--- ------------------------------3-
 G-------------------------------0- --------------------0-----2-----
 D-----2p0---0------------2-------- -----2p0---0-----------0--------
 A-0-------3--------3--0-----0----- -0-------3--------2-------------
 E-------------3--1---------------- -------------31---------------- 

Then do the verse cords:
C/A, Fmaj7/C, D2/A, C/A, Fmaj7/C, G/A, D5
Chorus: F5, A5, G5, F5, A5
Then do the Acoustic Riff once
Then Verse: C/A, Fmaj7/C, D2/A, C/A, Fmaj7/C, G/A, D5
Next do the revised Chorus: F5, A5, G5, F5, D5, A5, G5, D5, F5, G5
Acoustic Riff X2
Verse 3: C/A, Fmaj7/C, G/A
Chorus: F5, A5, G5, F5, D5, F5, A5, G5, F5, D5
Acoustic riff once
Then this:
 
 E--------------- ---------0-0-
 B--------------- ---------0-0-
 G--------------- ---------2-2-
 D-----2p0---0--- ---------2-2-
 A-0-------3----- ---3--0--0-0-
 E-------------3- -1----------- 

If your going to use this, make sure that you use it Legally. Thank you

Important: The song above is NOT stored on the Chordie server. The original song is hosted at www.christianguitar.org. Chordie works as a search engine and provides on-the-fly formatting. Chordie does not index songs against artists'/composers' will. To remove this song please click here.

Text color:
Chord color:
Chord grids: 
Font size:    
Page size: 

D2/A D5 Fmaj7/C
Rate #1 of 2 versions

Login - add to songbook

SHARE PAGE  




You need to log in to post comments