Guitar Tabs, Chords and Lyrics
Server problems seems to be fixed. Chordie has been experiencing problems with songs disappearing. These issues now seems to be fixed, but still verifying the fix. If you find anything strange, please email admin@chordie.com.


Vampire   Subseven

 
 D#------------------------------------
 A#------------------------------------
 F#12/12/12/12/12----------------------
 C# 9/ 9/ 9 /9/9----10s12--7-3-0--7-3-0
 G#10/10/10/10/10----------7-3-0--7-3-0
 C#-----------------10s12--7-3-0--7-3-0

 


 


 Guitar 2


 


 

 
 F#12/12/12/12/12--------------------------------------------------------

 


 C# 9/ 9/ 9/ 9/ 9--10s12-xxxxxxxxxxxxxxxxxxxxxxxxxxxxxxxxxxxxxxxxxxxxxxxx


 

 
 G#10/10/10/10/10--------xxxxxxxxxxxxxxxxxxxxxxxxxxxxxxxxxxxxxxxxxxxxxxxx
 C#----------------10s12-xxxxxxxxxxxxxxxxxxxxxxxxxxxxxxxxxxxxxxxxxxxxxxxx

 


 Then:


 


 [F#5/7/7/7/7/7/7/3/3/7/9]C#x/x/x/x/x/x/x/x/x/x/x


 [G#3/5/5/5/5/5/5/3/3/5/7]  


 

 
 C#---------------------

 


 


 Verse 1:


 Guitar 1


 


 [C#777777777777-333333333333]G#777777777777-333333333333 Repeat 4x


 [C#777777777777-333333333333]  


 Guitar 2


 

 
 bend------------------the10s 

 


 C#5/10/10/10/10/10/10/5/5/7b


 

 
 G#-------------------------- Repeat 8x
 C#--------------------------

 


 


 Chorus


 


 Both guitars


 


 

 
 F#12/12/12/12/12-------------------12/12/12/12/12------------------
 C#-9/-9/-9/-9/-9--10s12--33333333---9/-9/-9/-9/-9--10s12--3333-7777
 G#10/10/10/10/10---------33333333--10/10/10/10/10---------3333-7777
 C#----------------10s12--33333333------------------10s12--3333-7777

 


 


 Then:


 

 
 F#12/12/12/12/12-------------------
 C#-9/-9/-9/-9/-9--10s12--33333333--Repeat twice
 G#10/10/10/10/10---------33333333--
 C#----------------10s12--33333333--

 


 


 Post Chorus:


 


 Same as verse 1 for both guitars


 For guitar 1, repeat twice, for guitar two, repeat four times


 


 Verse two:


 


 Guitar 1:


 


 Same as verse one but the first two times palm mute then


 the last two times dont mute


 


 Guitar two: Second time unmute


 

 
 PM.----------------------
 C#7777777777777777---------------------------------------------- 

 


 G#7777777777777777 rest one count then:12/12/12/12/10/9/10/12/14 play twice


 

 
 C#7777777777777777----------------------------------------------

 


 


 then do the line in verse one four times


 


 Chorus


 


 Post chorus 2:


 


 F#5/7/10/9-5/7/10/9/10/9


 C#x/x/ x/x-x/x/ x/x/ x/x


 G#3/5/ 8/7-3/5/ 8/7/ 8/7


 

 
 C#----------------------

 


 


 Bridge:


 


 Guitar 1:


 


 F#5/9/10


 

 
 C#------Repeat 4x

 


 G#3/7/8


 

 
 C#------

 


 


 Guitar 2:


 


 F#5/7/10/9


 

 
 C#--------- 8x

 


 G#3/5/8/7


 

 
 C#--------

 


 


 Then:


 Guitar 1


 


 F#10/10/10


 

 
 C#-------

 


 G#8/ 8/ 8


 

 
 C#--------

 


 


 Guitar 2:


 


 [F#5/5/5]  


 

 
 C#-------

 


 [G#3/3/3]  


 

 
 C#--------

 


 


 Then:


 


 Both guitars:


 


 

 
 F#---------------------------9-----------------------
 C#7777----0/0/0/0----0/0/0/0-x--0/0/0/0--3/3/3/3-----
 G#77774x--0/0/0/0-2x/0/0/0/0-7--0/0/0/0--3/3/3/3-4x--
 C#7777----0/0/0/0----0/0/0/0----0/0/0/0--3/3/3/3-----
 (Repeat this part------------------------)

 


 After screaming repeat it twice


 


 Then:


 


 C#0/0/0/0--3/3/3/3


 G#0/0/0/0--3/3/3/3


 C#0/0/0/0--3/3/3/3


 


 Ending:


 


 

 
 F#5/9/10---------7/9/5/9/5

 


 C#x/x/x--2x then-x/x/x/x/x


 

 
 G#3/7/8----------5/7/3/7/3
 C#------------------------


Important: The song above is NOT stored on the Chordie server. The original song is hosted at www.christianguitar.org. Chordie works as a search engine and provides on-the-fly formatting. Chordie does not index songs against artists'/composers' will. To remove this song please click here.

This song is displayed as text-only. Transposing and tuning is only available for chordpro-songs.
Rate #1 of 1 versions

Jango Player

Login - add to songbook

SHARE PAGE  




You need to log in to post comments