Guitar Tabs, Chords and Lyrics
Update 25:10. 13:00. Site is back up running again. Songbooks are recovered. Woring on getting search back up..


Work  Jars of Clay

Good Monsters
This is from Jars of Clays new cd "Good Monsters" coming out Sep. 5th, enjoy!
Tuning - Standard (E A D G B e)
NOTE: This is the album version, not the radio edit.
On the radio edit the intro is shorter.
Intro (2x)
 
 G ---4-4-4-4--6-6-6-6--7-7-7-7--9-9-9-9--7--7--7--7---
 D ---4-4-4-4--6-6-6-6--7-7-7-7--9-9-9-9--7--7--7--7---
 A ---2-2-2-2--4-4-4-4--5-5-5-5--7-7-7-7--5--5--5--5---
 E ---------------------------------------------------- 

Intro Part 2 (2x)
 
 G ---4-4-4-4--6-6-6-6--7-7-7-7--9-9-9-9--11-11-11-11---
 D ---4-4-4-4--6-6-6-6--7-7-7-7--9-9-9-9--11-11-11-11---
 A ---2-2-2-2--4-4-4-4--5-5-5-5--7-7-7-7---9--9--9--9---
 E -----------------------------------------------------
 G ---12-12-12-12--11-11-11-11--9-9-9-9---
 D ---12-12-12-12--11-11-11-11--9-9-9-9---
 A ---10-10-10-10---9--9--9--9--7-7-7-7---
 E --------------------------------------- 

Verse 1 (2x)
 
 E ---------------------------------------------------------0-0-0-0---
 B ---------------------------------------------------------0-0-0-0---
 G ---7-7-7-7--4-4-4-4--7-7-7-7--4-4-4-4--7-7-7-7--4-4-4-4--2-2-2-2---
 D ---------------------------------------------------------2-2-2-2---
 A ---------------------------------------------------------0-0-0-0---
 E ------------------------------------------------------------------- 

B~
A~
B~
A~
[B]  
[A]  
[B]  
NOTE: Chords with a ~ after them strum one time and then do a little bit of
finger before next chord change and so on.
Chorus (Palm Muted)
[G]  
[A]  
[B]  
[G]  
[A]  
When I s[B]ay
Intro Part 2
Verse 2
 
 E ---------------------------------------------------------0-0-0-0---
 B ---------------------------------------------------------0-0-0-0---
 G ---7-7-7-7--4-4-4-4--7-7-7-7--4-4-4-4--7-7-7-7--4-4-4-4--2-2-2-2---
 D ---------------------------------------------------------2-2-2-2---
 A ---------------------------------------------------------0-0-0-0---
 E ------------------------------------------------------------------- 

B~
A~
B~
A~
[B]  
[A]  
[B] [A]  
[B] [A]  
Chorus (Palm Mute)
[G] [A] [B] [B]  
[G]  
[A]  
[B]  
[G]  
[A]  
[B]  
[G]  
[A]  
[B]  
Bridge
 
 E ---------------------------------------------------------------
 B ---------------------------------------------------------------
 G ---11-11-13-13-11-11-13-13-(2x)-14-14-16-16-14-14-16-16-(2x)---
 E ----------------------------------------------------------
 B ---15-15-17-17-15-15-17-17-(2x)-15-15-15-15-14-14-14-14---
 G ----------------------------------------------------------
 E --------------------------------------------------------------
 B ---12-12-12-12-10-10-10-10--13-(8x)-12-(8x)-13-(8x)-12-(8x)---
 G -------------------------------------------------------------- 

Chorus (Not Palm Muted)
[G]  
[A]  
[B]  
[G]  
[A]  
[B]  
[G]  
[A]  
[B]  
[G]  
[A]  
[B]  
[G]  
[A]  
[B]  
That is it! Comments, corrections, leave some!
Tim~

Important: The song above is NOT stored on the Chordie server. The original song is hosted at www.christianguitar.org. Chordie works as a search engine and provides on-the-fly formatting. Chordie does not index songs against artists'/composers' will. To remove this song please click here.

Text color:
Chord color:
Chord grids: 
Font size:    
Page size: 

A B G
Rate #1 of 10 versions

Jango Player

Login - add to songbook

SHARE PAGE  



You need to log in to post comments