Guitar Tabs, Chords and Lyrics
Update 25:10. 13:00. Site is back up running again. Songbooks are recovered. Woring on getting search back up..


Watch Me Die  Underoath

Tuning: Standard, Drop D
 
 e --------------------------------------------------------------------------
 B --------------------------------------------------------------------------
 G --------------------------------------------------------------------------
 D ------2-----3-----5-----7-----7h8p7-------2-----3-------------------------
 A --------------------------------------------------------3-----0-----0-----
 D --0-0---0-0---0-0---0-0---0-0-------0-0-----0-0----0-0----0-0---0-0-------
 e --------------------------------------------------------------------------
 B --------------------------------------------------------------------------
 G --------------------------------------------------------------------------
 D ------2-----3-----5-----7-----7h8p7------0------3-----2-------------------
 A ------------------------------------------------------------0-----0-------
 D --0-0---0-0---0-0---0-0---0-0-------0-0-----0-0---0-0---0-0---0-0---------
 e -------------------------------------------------------------------------
 B -------------------------------------------------------------------------
 G -------------------------------------------------------------------------
 D -----7-----------6-----7-----7--------6-----------6-----6-----6----------
 A -----------8-------------8-----8------------7-------7-----7-----7--------
 D -0-0---0-0---0-0---0-0-----0------0-0---0-0---0-0-----0-----0------------ 

3x
 
 e -------------------------------------------------------------------------
 B -------------------------------------------------------------------------
 G -------------------------------------------------------------------------
 D -----7-----------7-----7-----7-------6-----------6-----6-----6-----------
 A -----------8-------8-----8-----8-----------7-------7-----7-----7---------
 D -0-0---0-0---0-0-----0-----0-----0-0---0-0---0-0-----0-----0------------- 

2x
 
 e -------------------------------------------------------------------------
 B -------------------------------------------------------------------------
 G -----7------9-----10-----10-----10-9-----7-----9-----10----10-----10-----
 D -------0------0------0------0--------------0-----0------0-----0------0---
 A -------------------------------------------------------------------------
 D -0-0------0-----0------0------0------0-0-----0-----0------0-----0-------- 

There is some Strange strumming pattern here, its easy to pick up when you listen carefully to the song.
3x
 
 e ------------------------------------------
 B ------------------------------------------
 G -7-7-7-7-9-9-9-9-10-10-10-10-10-10-10-9---
 D -0-0-0-0-0-0-0-0-0--0-0-0--0--0--0--0---
 A -0-0-0-0-0-0-0-0-0--0-0--0--0--0--0--0---
 D ------------------------------------------
 e ------------------------------------------
 B ------------------------------------------
 G -7-7-7-7-9-9-9-9-10-----------------------
 D -0-0-0-0-0-0-0-0-0------------------------
 A -0-0-0-0-0-0-0-0-0------------------------
 D ------------------------------------------ 

2x
 
 e -------------------------------------------------------------------
 B -------------------------------------------------------------------
 G -------------------------------------------------------------------
 D -----7-----------6------------------7-----------6------------------
 A -----------8-----------7---8-5------------8-----------7---8-5------
 E ---0---0-0---0-0---0-0---0-----7-0----0-0---0-0---0-0---0-----7---- 

5x
 
 e ----------------
 B ----------------
 G ----------------
 D ---0---2h3p2-0--
 A -----0----------
 D -0-------------- 

pick slide
 
 e ----------------------------------------------
 B ----------------------------------------------
 G ------------------------------------------x--
 D -0----------0-----------0----------0------x--
 A -0----------0-----------0----------0------x--
 E -0------0-0-0------0-0--0------0-0-0----------
 P.M - - - - - -

4x
 
 e -----------------------------------------------
 B -----------------------------------------------
 G -----------------------------------------------
 D -----------------------------------------------
 A ---------6(16x)-5(16x)-8(x8)-9(x8)---------
 E --0(16x)--------------------------------------- 

4x
 
 e -----------------------------------------------
 B -----------------------------------------------
 G -----------------------------------------------
 D -----------------------------------------------
 A ------6666-5555-----6666-5555--8888-9999-------
 E --000-----------000---------------------------- 

Must be downpicked.
4x
 
 e --------------------------------------
 B --------------------------------------
 G --------------------------------------
 D ---------------------------------0----
 A ---------------------------------0----
 E -0-0-0-0-0-0-0-0-0-0-0-0-0-0-0-0-0----
 P.M------------------------------------- 

Guitar 1 4x
 
 e ---------------------------------------------------------------------------
 B ---------------------------------------------------------------------------
 G ---------------------------------------------------------------------------
 D ---------------------------------------------------------------------------
 A --555-888-777--555-888-777--555-888------888-777-----888-777-----888-------
 E -------------------------------------888---------888---------888----------- 

Guitar 2 4x
 
 e ---------------------------------------------------------------------------
 B ---------------------------------------------------------------------------
 G ---------------------------------------------------------------------------
 D ---------------------------------------------------------------------------
 A ---------------------------------------------------------------------------
 E --000-000-000--000-000-000--000-000--888-888-888-888-888-888-888-888-------
 e ----------------------
 B ----------------------
 G ----------------------
 D --5--7--8---3--5--7---
 A --5--7--8---3--5--7---
 E --5--7--8---3--5--7--- 

P.M - - - -
Guitar 1 2x
 
 e ---------------------------------------------------------------------------
 B ---------------------------------------------------------------------------
 G ---------------------------------------------------------------------------
 D ---------------------------------------------------------------------------
 A --5(16x)-7(16x)--8(32x)---------8(8x)-7(8x)------------------------------
 E --------------------------8(16x)----------------7(32x)--------------------- 

Guitar 2 2x
 
 e ---------------------------------------------------------------------------
 B ---------------------------------------------------------------------------
 G ---------------------------------------------------------------------------
 D ---------------------------------------------------------------------------
 A --------------------------------8(8x)-7(8x)------------------------------
 E --0(16x)-2(16x)-3(32x)--8(16x)----------------7(32x)--------------------- 

Guitar 1 3x
 
 e ----------------------------------------------- ------------------------------------------------
 B ----------------------------------------------- ------------------------------------------------
 G ----------------------------------------------- ------------------------------------------------
 D ----------------------------------------------- --------------------------------------------0---
 A --5(16x)--------------------8(8x)-7(8x)------ --5(16x)--------------------8(8x)-7(8x)---0---
 E ----------8(16x)-----10(16x)------------------- ----------8(16x)-----10(16x)----------------0--- 

Guitar 2 3x
 
 e ----------------------------------------------- ------------------------------------------------
 B ----------------------------------------------- ------------------------------------------------
 G ----------------------------------------------- ------------------------------------------------
 D ----------------------------------------------- --------------------------------------------0---
 A ---------------------------------------------- ------------------------------------------0---
 E --0(16x)--8(16x)-----10(16x)-5(8x)-3(8x)------ --0(16x)--8(16x)-----10(16x)-5(8x)-3(8x)---0--- 

He is using harmonics or and effect here 2x
 
 e ----------------------------------------------------------------------------
 B ----------------------------------------------------------------------------
 G ----7-----9-----10-----10-----10-9------7-----9-----10-----10-----12-12-----
 D --0---0-0---0-0----0-0----0-0-------0-0---0-0---0-0----0-0----0-0-----------
 A ----------------------------------------------------------------------------
 E ----------------------------------------------------------------------------
 P.M - - - - - - - - - - - - - - - - - -
 e ----------------------------------------------------------------------------
 B ----------------------------------------------------------------------------
 G -----7-----9-----10-----10-----10-10------7-----9-----10-----10-----10-10---
 D -0-0---0-0---0-0----0-0----0-0--------0-0---0-0---0-0----0-0----0-0---------
 A ----------------------------------------------------------------------------
 E ---------------------------------------------------------------------------- 

Slight palm mutting Let ring
 
 e ----------------------------------------------------------------
 B ----------------------------------------------------------------
 G -----7-7-7-9-9-9-10-10-10-10-10-10-10--7-7-7-7-9-9-9-9-10-------
 D -0-0-0-0-0-0-0-0-0--0-0--0--0--0-0---0-0-0-0-0-0-0-0-0--------
 A ----------------------------------------------------------------
 E ----------------------------------------------------------------
 P.M- - - - - - - - - - - - - - - - - - - - - - -

4x
 
 e ---------------------------------------------------
 B ---------------------------------------------------
 G ---------------------------------------------------
 D ---------------------------------------------------
 A ------------------------------------0-0-0-0--------
 E --0(6x)--888555--0(18x)---888-555--0-0-0-0-------- 

P.M - - - -
 
 e ------------------------------------
 B ------------------------------------
 G ------------------------------------
 D ---------------------10-----8----7--
 A ------------------------------------
 E --0-0-0-000-0-0-7-8----7-8---8-----
 P.M - - - --- - - - - - - -

7x
 
 e --------------------------------------------
 B --------------------------------------------
 G --------------------------------------------
 D ------------8-7------------10-----8---7-----
 A ----------------10-5------------------------
 E ---000-0-0-------------7-8----7-8---8-------
 P.M --- - - - - - - -

2x
 
 e -----------------------------------------------------------------------------
 B -----------------------------------------------------------------------------
 G -----------------------------------------------------------------------------
 D ------------------------------------------------------------------0----------
 A --10-5-0-9-5-0-0-0-10-5-0-9-5-0-0-0-10-5-0-9-5-0-0-0-10-5-0-9-5-0-0----------
 E --0--0-0-0-0-0-0-0-0--0-0-0-0-0-0-0-0--0-0-0-0-0-0-0-0--0-0-0-0-0-0----------
 P.M ---------------------------------------------------------------------------
 e ---------------------------------------------------------------------------
 B ---------------------------------------------------------------------------
 G ---------------------------------------------------------------------------
 D ------------------------------------------------------------------0--------
 A --10-----9---------10p5---9p5-------10p5---9p5-------10p5---9p5---0--------
 E -----0-0---0-0-0-0------0-----0-0-0------0-----0-0-0------0-----0-0--------
 P.M - - - - - - - - - - - - - - - -
 e ---------------------------------------------------------------------------
 B ---------------------------------------------------------------------------
 G ---------------------------------------------------------------------------
 D -------------------------------------------------------------------0-------
 A --10p5---9p5--------10p5---9p5-------10p5---9p5-------10p5---9p5---0-------
 E -------0-----0-0-0-------0-----0-0-0------0-----0-0-0------0-----0-0-------
 P.M - - - - - - - - - - - - - -
 e ------------------------------------------------------------------------------------------------
 B ------------------------------------------------------------------------------------------------
 G ---------------------------8--7--5-----------------------------------------8--7--5--------------
 D --7------------------------8--7--5---5-----3------7------------------------8--7--5---3-----5----
 A --7-7-7-7-7-7-7-7-7-7-7-7--6--5--3---5-----3------7-7-7-7-7-7-7-7-7-7-7-7--6--5--3---3-----5----
 E --7-7-7-7-7-7-7-7-7-7-7-7------------5-----3------7-7-7-7-7-7-7-7-7-7-7-7------------3-----5----
 P.M - - - - - - - - - - - - - - - - - - - - - -

2x
 
 e -----------------------------------------------------------------------------------------------
 B -----------------------------------------------------------------------------------------------
 G -------------------------8--7--5----------------------------------------8--7--5----------------
 D --7-----------7-7-7------8--7--5-----5-----3------7-------7---7-7-7-----8--7--5-----3-----5----
 A --7-7-7-7-7-7-7-7-7---0--6--5--3--0--5-----3------7-7-7-7-7-7-7-7-7--0--6--5--3--0--3-----5----
 E --7-7-7-7-7-7-7-7-7---0-----------0--5-----3------7-7-7-7-7-7-7-7-7--0-----------0--3-----5----
 P.M - - - - - - - - - - - - - - - - - - -

2x
 
 e --------------------------------------------------------------------------------------------------
 B --------------------------------------------------------------------------------------------------
 G --------------------------8--7--5------------------------------------------8--7--5----------------
 D --------------------------8--7--5-----5-----3------------------------------8--7--5-----3-----5----
 A ------7-----7---7-7-7--0--6--5--3--0--5-----3----------7-----7---7-7-7--0--6--5--3--0--3-----5----
 E --7-7---7-7---7--------0-----------0--5-----3------7-7---7-7---7--------0-----------0--3-----5----
 P.M - - - - - - - - - - - - - - - - - - - -
 e ------------------------
 B ------------------------
 G ---8--7--5--------------
 D ---8--7--5--6--5--3--5--
 A ---6-5--3--6--5--3--5--
 E ------------6--5--3--5--
 P.M - - - - - -

4x
 
 e ------------------------------------------------------------------
 B ------------------------------------------------------------------
 G ---------------------------------------------------------5-7-8----
 D --1-------6-----1---------3-5-6--1-------6-----1---------5-7-8----
 A --1--0-0--6--0--1--0-000--3-5-6--1--0-0--6--0--1--0-000-3-5-6----
 E --1--0-0--6--0--1--0-000--3-5-6--1--0-0--6--0--1--0-000-----------
 P.M - - - - --- - - - - - - - --- - - -

2x
 
 e ----------------------------------------------------------
 B ----------------------------------------------------------
 G ----------------------------------------------------------
 D --------------------6--1---------------------6--1---------
 A --0-0---0-0---0-0---6--1---0-0---0-0---0-0---6--1---------
 E --0-0---0-0---0-0---6--1---0-0---0-0---0-0---6--1---------
 P.M - - - - - - - - - - - -

Guitar 1 4x
 
 e ----------------------------------------------------------------------------
 B ----------------------------------------------------------------------------
 G ----------------------------------------------------------------------------
 D ----------------------------------------------------------------------------
 A --555-888-777--555-888-777--555-888----------101010-101010---------888-888--
 E -------------------------------------888-888---------------777-777---------- 

Guitar 2 4x
 
 e ----------------------------------------------------------------------------
 B ----------------------------------------------------------------------------
 G ----------------------------------------------------------------------------
 D ----------------------------------------------------------------------------
 A ---------------------------------------------101010-101010---------888-888--
 E --000-000-000--000-000-000--000-000--888-888---------------777-777---------- 

Ending cord to the song.
e -----
[B] [-----]  
[G]D [-----]--0--
A --0--
E --0--

Important: The song above is NOT stored on the Chordie server. The original song is hosted at www.christianguitar.org. Chordie works as a search engine and provides on-the-fly formatting. Chordie does not index songs against artists'/composers' will. To remove this song please click here.

Text color:
Chord color:
Chord grids: 
Font size:    
Page size: 

B G
Rate #1 of 1 versions

Jango Player

Login - add to songbook

SHARE PAGE  




You need to log in to post comments