Guitar Tabs, Chords and Lyrics
Major upgrade!! After one year development the new version of Chordie is now online! Please give feedback.


Here I Am Send Me  Delirious?

Here I Am Send Me(live)
Copyright Furious Records
Tabbed by Rob Borody(ribby1)
Intro:Distortion
listen for timing
(8 bars) (4 bars....)
[Gm] [Eb] [C]  
 
 e-----------------------------------------
 b-----------------------------------------
 g-----------------------------------------
 d--12-12-12-12-12-12-12-12-8-8-8-8-5-5-5-5
 a--10-10-10-10-10-10-10-10-6-6-6-6-3-3-3-3
 e-----------------------------------------

Verse 1:
[Gm] [Eb] [C]  
 
 e------------------------------------------
 b------------------------------------------
 g------------------------------------------
 d--12-12-12-12-12-12-12-12-8-8-8-8-5-5-5-5-
 a--10-10-10-10-10-10-10-10-6-6-6-6-3-3-3-3-
 e------------------------------------------

Pre-chorus:palm mute
[Bb] [Bb/D] [Ab] [Gm]  
 
 e---x-------0-------x-------x------
 b---x-------0-------x-------x------
 g---3-------7-------x-------x------
 d---3-------x-------6-------5------
 a---1-------5-------6-------5------
 e---0-------0-------4-------3------

Chorus:
[Bb] [Bb/D] [Ab] [Gm]  
 
 e---x-------0-------x-------x---------
 b---x-------0-------x-------x---------
 g---3-------7-------x-------x---------
 d---3-------x-------6-------5---------
 a---1-------5-------6-------5---------
 e---0-------0-------4-------3--3~/---15

Verse 2:
[Gm] [Eb] [C]  
 
 e------------------------------------------
 b------------------------------------------
 g------------------------------------------
 d--12-12-12-12-12-12-12-12-8-8-8-8-5-5-5-5-
 a--10-10-10-10-10-10-10-10-6-6-6-6-3-3-3-3-
 e------------------------------------------

Pre-chorus 2:palm mute
[Bb] [Bb/D] [Ab] [Gm]  
 
 e---x-------0-------x-------x------
 b---x-------0-------x-------x------
 g---3-------7-------x-------x------
 d---3-------x-------6-------5------
 a---1-------5-------6-------5------
 e---0-------0-------4-------3------

Chorus 2:
[Bb] [Bb/D] [Ab] [Gm]  
 
 e---x-------0-------x-------x---------
 b---x-------0-------x-------x---------
 g---3-------7-------x-------x---------
 d---3-------x-------6-------5---------
 a---1-------5-------6-------5---------
 e---0-------0-------4-------3---------

Instrumental:Ovedrive/Heavy Distortion
[Eb] [C] [Eb] [C]  
 
 e--0----0-------------------------0----0--------------------------------------
 b--0----0-------------------------0----0--------------------------------------
 g--8----5-------------------------8----17-------------------------------------
 d--8----5-------------------------8----17-------------------------------------
 a--6----3---------------------1---6----15----17-17-17-17-15-17-17-15-17-20-17-
 e--0----0----5-5-5-5-4-5-5-4-5-5--0----0-----15-15-15-15-13-15-15-13-15-18-15-

Bridge:(2x)
[Gm] [Eb] [C]  
 
 e------------------------------------------
 b------------------------------------------
 g---12~12~12~12~12~12~12~12-8-8-8-8-5-5-5-5
 d------------------------------------------
 a------------------------------------------
 e------------------------------------------

Solo:
 
 e----------------6--------6-----------6--------6-8-10----8--10-----------------
 b----~8~8~8~8~6-8-8~-8-6-8-8-6-8-8-6-8-8~~8-6-8------8-11--8--6-8-6---16~~~17~~
 g------------------------------------------------------------------------------
 d------------------------------------------------------------------------------
 a------------------------------------------------------------------------------
 e------------------------------------------------------------------------------

or
 
 e-------------------------------------------------------------------------------------------------------
 b-------------------11-----------11-----------------11-----------11-13-15-----13-15---------------------
 g-~12~12~12~12-10-12--12-12-10-12--12-10-12-12-10-12--12--12-10-12-------12-15------12-10-12-10~~21-22~~
 d-------------------------------------------------------------------------------------------------------
 a-------------------------------------------------------------------------------------------------------
 e-------------------------------------------------------------------------------------------------------

Chorus:3
[Bb] [Bb/D] [Ab] [Gm]  
 
 e---x-------0-------x-------x---------
 b---x-------0-------x-------x---------
 g---3-------7-------x-------x---------
 d---3-------x-------6-------5---------
 a---1-------5-------6-------5---------
 e---0-------0-------4-------3---------

God Bless

Important: The song above is NOT stored on the Chordie server. The original song is hosted at www.christianguitar.org. Chordie works as a search engine and provides on-the-fly formatting. Chordie does not index songs against artists'/composers' will. To remove this song please click here.

Text color:
Chord color:
Chord grids: 
Font size:    
Page size: 

Ab Bb Bb/D C Eb Gm
Rate #1 of 5 versions

Login - add to songbook

SHARE PAGE  




You need to log in to post comments