Guitar Tabs, Chords and Lyrics
Server problems seems to be fixed. Chordie has been experiencing problems with songs disappearing. These issues now seems to be fixed, but still verifying the fix. If you find anything strange, please email admin@chordie.com.


Forgiven   Relient K

 
 Eb[----------------------------------------------------------------------------------]
 Bb[----------------------------------------------------------------------------------]
 Gb[--9-9-9-9-9-9-9-9-9-9-9-9-9-9-9-9-12-12-12-12-12-12-12-12-12-12-12-12-12-12-12-12-]

 


 . . . . . . . . . . . . . . . . . . . . . . . . . . . . . . . .


 

 
 Eb[----------------------------------------------------------------------------------]
 Bb[----------------------------------------------------------------------------------]
 Gb[--7-7-7-7-7-7-7-7-7-7-7-7-7-7-7-7-11-11-11-11-11-11-11-11-11-11-11-11-11-11-11-11-]

 


 . . . . . . . . . . . . . . . . . . . . . . . . . . . . . . . .


 

 
 Eb[----------------------------------------------------------------------------------]
 Bb[----------------------------------12-12-12-12-12-12-12-12-12-12-12-12-12-12-12-12-]
 Gb[--9-9-9-9-9-9-9-9-9-9-9-9-9-9-9-9-------------------------------------------------]

 


 . . . . . . . . . . . . . . . . . . . . . . . . . . . . . . . .


 

 
 Eb[-------------------------------------------------------------------]
 Bb[-------------------------------------------------------------------](repeat verse)
 Gb[--9-9-9-9-9-9-9-9-9-9-9-9-9-9-9-9-9-9-9-9-9-9-9-9-9-9-9-9-9-9-9-9--]

 


 . . . . . . . . . . . . . . . . . . . . . . . . . . . . . . . .


 Pre-Chorus


 Gtr. 1


 

 
 Eb[--0-0-0-0-0-0-0-0-0-0-0-0-0-0-0-0-0-0-0-0-0-0-0-0-0-0-0-0-0-0-0-0-]
 Bb[--8-8-8-8-7-7-7-7-8-8-8-8-7-7-7-7-8-8-8-8-7-7-7-7-8-8-8-8-7-7-7-7-]
 Gb[------------------------------------------------------------------]
 Eb[--0-0-0-0-0-0-0-0-0-0-0-0-0-0-0-0--]
 Bb[--4-4-4-4-4-4-4-4-7-7-7-7-7-7-7-7--]
 Gb[-----------------------------------]

 


 


 Gtr. 2


 

 
 Gb[--7-----5-----4---8--]
 Db[--7-----5-----4---9--]
 Ab[--5-----3-----2---6--]
 Eb[---------------------]

 


 


 Chorus


 Gtr. 1


 

 
 Gb[--13-------14-------6----13----8----11--]
 Db[---x--------x-------x-----x----x-----x--]
 Ab[--11-------12-------4----11----6-----9--]
 Eb[----------------------------------------]
 Gb[--13-------14-------6----13----11--]
 Db[---x--------x-------x-----x-----x--]
 Ab[--11-------12-------4----11-----9--]
 Eb[-----------------------------------]

 


 


 Gtr. 2


 

 
 Gb[------------------6-------4--]
 Db[--2-------7-------6-------4--](repeat)
 Ab[--2-------7-------4-------2--]
 Eb[--0-------5------------------]

 


 


 Verse 2


 

 
 Eb[----------------------------------------------------------------------------------]
 Bb[----------------------------------------------------------------------------------]
 Gb[--9-9-9-9-9-9-9-9-9-9-9-9-9-9-9-9-12-12-12-12-12-12-12-12-12-12-12-12-12-12-12-12-]

 


 . . . . . . . . . . . . . . . . . . . . . . . . . . . . . . . .


 

 
 Eb[----------------------------------------------------------------------------------]
 Bb[----------------------------------------------------------------------------------]
 Gb[--7-7-7-7-7-7-7-7-7-7-7-7-7-7-7-7-11-11-11-11-11-11-11-11-11-11-11-11-11-11-11-11-]

 


 . . . . . . . . . . . . . . . . . . . . . . . . . . . . . . . .


 

 
 Eb[----------------------------------------------------------------------------------]
 Bb[----------------------------------12-12-12-12-12-12-12-12-12-12-12-12-12-12-12-12-]
 Gb[--9-9-9-9-9-9-9-9-9-9-9-9-9-9-9-9-------------------------------------------------]

 


 . . . . . . . . . . . . . . . . . . . . . . . . . . . . . . . .


 

 
 Eb[-------------------------------------------------------------------]
 Bb[-------------------------------------------------------------------]
 Gb[--9-9-9-9-9-9-9-9-9-9-9-9-9-9-9-9-9-9-9-9-9-9-9-9-9-9-9-9-9-9-9-9--]

 


 . . . . . . . . . . . . . . . . . . . . . . . . . . . . . . . .


 

 
 Eb[----------------------------------------------------------------------------------]
 Bb[----------------------------------------------------------10-10-10-10-10-10-10-10-]
 Gb[--9-9-9-9-9-9-9-9-9-9-9-9-9-9-9-9-12-12-12-12-12-12-12-12-------------------------]

 


 . . . . . . . . . . . . . . . . . . . . . . . . . . . . . . . .


 

 
 Eb[---------------------------------------------------------------------------]
 Bb[--12-12-12-12-12-12-12-12-12-12-12-12-12-12-12-12-10-10-10-10-10-10-10-10--]
 Gb[---------------------------------------------------------------------------]

 


 . . . . . . . . . . . . . . . . . . . . . . . .


 

 
 Eb[---------------------------------------------------------------------------]
 Bb[--------------------------10-10-10-10-10-10-10-10-10-10-10-10-10-10-10-10--]
 Gb[--12-12-12-12-12-12-12-12--------------------------------------------------]

 


 . . . . . . . . . . . . . . . . . . . . . . . .


 

 
 Eb[--------------------------------------------------]
 Bb[--13-13-13-13-13-13-13-13-12-12-12-12-12-12-12-12-]
 Gb[--------------------------------------------------]

 


 . . . . . . . . . . . . . . . .


 

 
 Eb[-------------------------------------------------------------------]
 Bb[-------------------------------------------------------------------]
 Gb[--9-9-9-9-9-9-9-9-9-9-9-9-9-9-9-9-9-9-9-9-9-9-9-9-9-9-9-9-9-9-9-9--]

 


 . . . . . . . . . . . . . . . . . . . . . . . . . . . . . . . .


 Pre-Chorus 2


 Gtr. 1


 

 
 Gb[--7--7--7--7--7--7s>-16-16-14-14---5--5--5--5--5--5s>-16-16-14-14---4---8--]
 Db[--7--7--7--7--7--7s>--x--x--x--x---5--5--5--5--5--5s>--x--x--x--x---4---9--]
 Ab[--5--5--5--5--5--5s>-14-14-12-12---3--3--3--3--3--3s>-14-14-12-12---2---6--]
 Eb[---------------------------------------------------------------------------]

 


 


 Gtr. 2


 

 
 Gb[--7--7--7--7--7--7s>-12-12-11-11---5--5--5--5--5--5s>-12-12-11-11---4---8--]
 Db[--7--7--7--7--7--7s>--x--x--x--x---5--5--5--5--5--5s>--x--x--x--x---4---9--]
 Ab[--5--5--5--5--5--5s>-10-10--9--9---3--3--3--3--3--3s>-12-12--9--9---2---6--]
 Eb[---------------------------------------------------------------------------]

 


 


 (Chorus)


 


 Bridge (there’s only one guitar part in the bridge)


 Eb[--12--]w/whammy bar


 Bb[--12--]


 

 
 Gb[------]

 


 


 (Chorus)


 


 Outro


 

 
 Eb[----------------------------------------------------------------------------------]
 Bb[----------------------------------------------------------------------------------]
 Gb[--9-9-9-9-9-9-9-9-9-9-9-9-9-9-9-9-12-12-12-12-12-12-12-12-12-12-12-12-12-12-12-12-]

 


 . . . . . . . . . . . . . . . . . . . . . . . . . . . . . . . .


 

 
 Eb[----------------------------------------------------------------------------------]
 Bb[----------------------------------------------------------------------------------]
 Gb[--7-7-7-7-7-7-7-7-7-7-7-7-7-7-7-7-11-11-11-11-11-11-11-11-11-11-11-11-11-11-11-11-]

 


 . . . . . . . . . . . . . . . . . . . . . . . . . . . . . . . .


 

 
 Eb[----------------------------------------------------------------------------------]
 Bb[----------------------------------12-12-12-12-12-12-12-12-12-12-12-12-12-12-12-12-]
 Gb[--9-9-9-9-9-9-9-9-9-9-9-9-9-9-9-9-------------------------------------------------]

 


 . . . . . . . . . . . . . . . . . . . . . . . . . . . . . . . .


 

 
 Eb[-------------------------------------------------------------------]
 Bb[-------------------------------------------------------------------]
 Gb[--9-9-9-9-9-9-9-9-9-9-9-9-9-9-9-9-9-9-9-9-9-9-9-9-9-9-9-9-9-9-9-9--]

 


 . . . . . . . . . . . . . . . . . . . . . . . . . . . . . . . .


 

 
 Eb[----------------------------------------------------------------------------------]
 Bb[----------------------------------------------------------------------------------]
 Gb[--9-9-9-9-9-9-9-9-9-9-9-9-9-9-9-9-12-12-12-12-12-12-12-12-12-12-12-12-12-12-12-12-]

 


 . . . . . . . . . . . . . . . . . . . . . . . . . . . . . . . .


 

 
 Eb[----------------------------------------------------------------------------------]
 Bb[----------------------------------------------------------------------------------]
 Gb[--7-7-7-7-7-7-7-7-7-7-7-7-7-7-7-7-11-11-11-11-11-11-11-11-11-11-11-11-11-11-11-11-]

 


 . . . . . . . . . . . . . . . . . . . . . . . . . . . . . . . .


 

 
 Eb[-----------------------------------------0~~~~~--]
 Bb[----------------------------------12~~~~-0~~~~~--]
 Gb[--9-9-9-9-9-9-9-9-9-9-9-9-9-9-9-9--------0~~~~~--]
 Db[-----------------------------------------2~~~~~--]
 Ab[-----------------------------------------2~~~~~--]
 Eb[-----------------------------------------0~~~~~--]


Important: The song above is NOT stored on the Chordie server. The original song is hosted at www.christianguitar.org. Chordie works as a search engine and provides on-the-fly formatting. Chordie does not index songs against artists'/composers' will. To remove this song please click here.

This song is displayed as text-only. Transposing and tuning is only available for chordpro-songs.
Rate #1 of 5 versions

Jango Player

Login - add to songbook

SHARE PAGE  



You need to log in to post comments