Guitar Tabs, Chords and Lyrics
Server problems seems to be fixed. Chordie has been experiencing problems with songs disappearing. These issues now seems to be fixed, but still verifying the fix. If you find anything strange, please email admin@chordie.com.


Bite My Tongue   Relient K

 
 Eb[-----10----10----10----10----10----10----10----10--]
 Bb[--10----10----10----10----10----10----10----10-----]
 Gb[---------------------------------------------------]

 


 . . . . . . . . . . . . . . . .


 

 
 Eb[-----9----9----9----9----9----9----9----9--]
 Bb[--10---10---10---10---10---10---10---10----]
 Gb[-------------------------------------------]

 


 . . . . . . . . . . . . . . . .


 

 
 Eb[-----10----10----10----10----10----10----10----10--]
 Bb[--10----10----10----10----10----10----10----10-----]
 Gb[---------------------------------------------------]

 


 . . . . . . . . . . . . . . . .


 

 
 Eb[-----10----10----10----10----12----12----12----12--]
 Bb[--10----10----10----10----10----10----10----10-----](repeat
 Gb[---------------------------------------------------] intro)

 


 . . . . . . . . . . . . . . . .


 Gtr. 2 (comes in on gtr. 1’s third line)


 

 
 Gb[-----------------------------------------]
 Db[--5-----4---7---0-----7-----5-----4---7--]
 Ab[--5-----5---7---0-----7-----5-----5---7--]
 Db[--5-----4---7---0-----7-----5-----4---7--]

 


 


 Verse 1 (not exactly sure what’s being played here,


 so here are the chords)


 D Bm G (chords relative to Drop Db/C# tuning)


 


 Pre-Chorus


 

 
 Db[-------------------------------------------------------------------]
 Ab[--5-5-5-5-5-5-5-5-7-7-7-7-7-7-7-7-9-9-9-9-9-9-9-9-9-9-9-9-9-9-9-9--]
 Db[--5-5-5-5-5-5-5-5-7-7-7-7-7-7-7-7-9-9-9-9-9-9-9-9-9-9-9-9-9-9-9-9--]

 


 . . . . . . . . . . . . . . . . . . . . . . . . . . . . . . . .


 

 
 Db[-------------------------------------------------------------------]
 Ab[--5-5-5-5-5-5-5-5-7-7-7-7-7-7-7-7-9-9-9-9-9-9-9-9-9-9-9-9-9-9-9-9--]
 Db[--5-5-5-5-5-5-5-5-7-7-7-7-7-7-7-7-9-9-9-9-9-9-9-9-9-9-9-9-9-9-9-9--]

 


 . . . . . . . . . . . . . . . . . . . . . . . . . . . . . . . .


 (gradually remove)


 

 
 Gb[---------------------------]
 Db[--5---7---9-----5---7---9--]
 Ab[--5---7---9-----5---7---9--]
 Db[--5---7---9-----5---7---9--]

 


 


 Chorus


 Gtr. 1(light palm mute)


 

 
 Eb[-----10----10----10----10----10----10----10----10--]
 Bb[--10----10----10----10----10----10----10----10-----]
 Gb[---------------------------------------------------]

 


 . . . . . . . . . . . . . . . .


 

 
 Eb[-----9----9----9----9----9----9----9----9--]
 Bb[--10---10---10---10---10---10---10---10----]
 Gb[-------------------------------------------]

 


 . . . . . . . . . . . . . . . .


 

 
 Eb[-----10----10----10----10----10----10----10----10--]
 Bb[--10----10----10----10----10----10----10----10-----]
 Gb[---------------------------------------------------]

 


 . . . . . . . . . . . . . . . .


 

 
 Eb[-----10----10----10----10----12----12----12----12--]
 Bb[--10----10----10----10----10----10----10----10-----]
 Gb[---------------------------------------------------] 

 


 . . . . . . . . . . . . . . . .


 Gtr. 2


 

 
 Gb[---------------------------]
 Db[--0-----7-----5-----4---7--]
 Ab[--0-----7-----5-----5---7--]
 Db[--0-----7-----5-----4---7--]

 


 


 Verse 2


 Gtr. 1


 

 
 Eb[---------------------------------------------------]
 Bb[--10-10-10-10-10-10-10-10-10-10-10-10-10-10-10-10--]
 Gb[---7--7--7--7--7--7--7--7--7--7--7--7--7--7--7--7--]
 Eb[----------------------------------]
 Bb[--5-5-5-5-5-5-5-5-7-7-7-7-7-7-7-7-](repeat
 Gb[--7-7-7-7-7-7-7-7-7-7-7-7-7-7-7-7-] verse)

 


 


 Gtr. 2


 

 
 Db[-------------------------------------------------------------------]
 Ab[--0-0-0-0-0-0-0-0-0-0-0-0-0-0-0-0-9-9-9-9-9-9-9-9-5-5-5-5-5-5-5-5--]
 Db[--0-0-0-0-0-0-0-0-0-0-0-0-0-0-0-0-9-9-9-9-9-9-9-9-5-5-5-5-5-5-5-5--]

 


 . . . . . . . . . . . . . . . . . . . . . . . . . . . . . . . .


 

 
 Db[-------------------------------------------------------------------]
 Ab[--0-0-0-0-0-0-0-0-0-0-0-0-0-0-0-0-9-9-9-9-9-9-9-9-5-5-5-5-5-5-5-5--]
 Db[--0-0-0-0-0-0-0-0-0-0-0-0-0-0-0-0-9-9-9-9-9-9-9-9-5-5-5-5-5-5-5-5--]

 


 . . . . . . . . . . . . . . . . . . . . . . . . . . . . . . . .


 Pre-Chorus 2


 Gtr. 1


 

 
 Eb[---------------------------------------------------]
 Bb[--10-10-10-10-10-10-10-10-10-10-10-10-10-10-10-10--](play 3x)
 Gb[---7--7--7--7--7--7--7--7--7--7--7--7--7--7--7--7--]

 


 


 Gtr. 2


 

 
 Gb[-----------------------]
 Db[--5---7---9-----5---7--]
 Ab[--5---7---9-----5---7--]
 Db[--5---7---9-----5---7--]

 


 


 (Chorus 2x)


 


 Bridge


 

 
 Db[-------------------------------------------------------------------]
 Ab[--9-9-9-9-9-9-9-9-9-9-9-9-9-9-9-9-5-5-5-5-5-5-5-5-5-5-5-5-5-5-5-5--]
 Db[--9-9-9-9-9-9-9-9-9-9-9-9-9-9-9-9-5-5-5-5-5-5-5-5-5-5-5-5-5-5-5-5--]

 


 . . . . . . . . . . . . . . . . . . . . . . . . . . . . . . . .


 

 
 Db[-------------------------------------------------------------------]
 Ab[--0-0-0-0-0-0-0-0-0-0-0-0-0-0-0-0-4-4-4-4-4-4-4-4-4-4-4-4-4-4-4-4--]
 Db[--0-0-0-0-0-0-0-0-0-0-0-0-0-0-0-0-4-4-4-4-4-4-4-4-4-4-4-4-4-4-4-4--]

 


 . . . . . . . . . . . . . . . . . . . . . . . . . . . . . . . .


 

 
 Db[-------------------------------------------------------------------]
 Ab[--9-9-9-9-9-9-9-9-9-9-9-9-9-9-9-9-5-5-5-5-5-5-5-5-5-5-5-5-5-5-5-5--]
 Db[--9-9-9-9-9-9-9-9-9-9-9-9-9-9-9-9-5-5-5-5-5-5-5-5-5-5-5-5-5-5-5-5--]

 


 . . . . . . . . . . . . . . . . . . . . . . . . . . . . . . . .


 

 
 Db[-------------------------------------------------------------------]
 Ab[--0-0-0-0-0-0-0-0-0-0-0-0-0-0-0-0-4-4-4-4-4-4-4-4-4-4-4-4-4-4-4-4--]
 Db[--0-0-0-0-0-0-0-0-0-0-0-0-0-0-0-0-4-4-4-4-4-4-4-4-4-4-4-4-4-4-4-4--]

 


 . . . . . . . . . . . . . . . . . . . . . . . . . . . . . . . .


 

 
 Db[-------------------------------------------------------------------]
 Ab[--5-5-5-5-5-5-5-5-5-5-5-5-5-5-5-5-7-7-7-7-7-7-7-7-7-7-7-7-7-7-7-7--]
 Db[--5-5-5-5-5-5-5-5-5-5-5-5-5-5-5-5-7-7-7-7-7-7-7-7-7-7-7-7-7-7-7-7--]

 


 . . . . . . . . . . . . . . . . . . . . . . . . . . . . . . . .


 Chorus 2


 Gtr. 1


 

 
 Eb[--10-10-10-10-10-10-10-10-10-10-10-10-10-10-10-10--]
 Bb[--10-10-10-10-10-10-10-10-10-10-10-10-10-10-10-10--]
 Gb[---------------------------------------------------]

 


 . . . . . . . . . . . . . . . .


 

 
 Eb[---9--9--9--9--9--9--9--9--9--9--9--9--9--9--9--9--]
 Bb[--10-10-10-10-10-10-10-10-10-10-10-10-10-10-10-10--]
 Gb[---------------------------------------------------]

 


 . . . . . . . . . . . . . . . .


 Gtr. 2


 

 
 Db[-------------------------------------------------------------------]
 Ab[--5-5-5-5-5-5-5-5-5-5-5-5-5-5-5-5----------------------------------]
 Db[----------------------------------7-7-7-7-7-7-7-7-7-7-7-7-7-7-7-7--]

 


 . . . . . . . . . . . . . . . . . . . . . . . . . . . . . . . .


 Then, Gtr. 2


 

 
 G[---------------]
 D[--5-----4---7--]
 A[--5-----5---7--]
 D[--5-----4---7--]

 


 


 (Chorus 2x)


 


 End on


 

 
 Gb[----------]


Important: The song above is NOT stored on the Chordie server. The original song is hosted at www.christianguitar.org. Chordie works as a search engine and provides on-the-fly formatting. Chordie does not index songs against artists'/composers' will. To remove this song please click here.

This song is displayed as text-only. Transposing and tuning is only available for chordpro-songs.
Rate #1 of 5 versions

Login - add to songbook

SHARE PAGE  



You need to log in to post comments