Guitar Tabs, Chords and Lyrics
Login is temporarily disabled for some users. Do not panic. Will be back in an hour or two. DO NOT REREGISTER!!


In the Name  Jennifer Knapp

by Jennifer Knapp
Album: Kansas
(c) 1997 Gotee Music/ West Hudson Music/BMI
Submitted by: Cody Pitre, cpitre@intop.net
more tab at: http://www.intop.net/~cpitre/index.html
 
 -----------------------------------------------------

Intro:
 
 e---------------------------- ------------------------ ---------------
 b---------------------------- -11-10------------------ ---------------
 g---------------------------- -------12-10------------ ---------------
 d-----8-10-10p8-10/12\10----- -------------12-10h12-8- -10/12-10-8-10-
 A-/10--------------------10\- ------------------------ ---------------
 E---------------------------- ------------------------ ---------------
 e--------------- ------------------------------
 b--------------- ------------------------------
 g--------------- ------------------------------
 d-10/12-10-8---- ------8-12-12-10-8-10-12-10-8-
 A------------10- -8-10-------------------------
 E--------------- ------------------------------ 

[Bb]All these y[Cm]ears[Eb] to many ah[F]ead to think clear.
[Bb]Some say w[Cm]here's my crystal ba[Eb]ll.[F]
[Bb]Some men p[Cm]lay the lottery
[Eb]makin bets against the gove[F]rnment's economy.
[Bb]They say I'd ra[Cm]ther be rich than [Eb]be alive at [F]all.
[Eb]When men in miry [F]circumstances fa[Gm]ll.
[Eb]It won't be ha[F]rd to tell
where they p[Gm]laced their re[C]solve.
Chorus:
Some t[Bb]rust in ch[F]ariots. But we t[Gm]rust
in the name of the [Eb]Lord our God.
To e[Bb]ach his own won't l[F]ead you home
and pr[Eb]ob'ly never w[Bb]ill.
Riff(similar to intro, play around with it)
Picket fences may build up our defense.
In domestic wars of leisure suits.
That's OK it doesn't bother me.
You can hold onto your philosophy
of what's mine is mine, what's yours
is yours, but whats the truth?
When the walls do crumble and they fall.
It won't be hard to tell where we place our resolve.
repeat chorus
I won't t[Bb]rust in the th[F]ings I do.
they w[Gm]ill not stand.
they w[Eb]on't come through.
So I'll t[Bb]rust in the na[F]me of the Lord my G[Gm]od...[C]
I will t[Bb]rust in the na[F]me..
[Gm]When the w[F]alls do crumble [Gm]and what will [F]I
find to hold on [Gm]to.
Thats stronger than my Jesus?
Sing h[C]allelujah...halleluja[F]h..
Riff (similar to intro)
When the walls do crumble and they fall
It won't be hard to tell where we place our
resolve...
repeat chorus

Important: The song above is NOT stored on the Chordie server. The original song is hosted at www.christianguitar.org. Chordie works as a search engine and provides on-the-fly formatting. Chordie does not index songs against artists'/composers' will. To remove this song please click here.

Text color:
Chord color:
Chord grids: 
Font size:    
Page size: 

Bb C Cm Eb F Gm
Rate #1 of 2 versions

Jango Player

Login - add to songbook

SHARE PAGE  



You need to log in to post comments