Guitar Tabs, Chords and Lyrics
Server problems seems to be fixed. Chordie has been experiencing problems with songs disappearing. These issues now seems to be fixed, but still verifying the fix. If you find anything strange, please email admin@chordie.com.


Study Humans  MxPx

Song: Study Humans
Artist: MxPx
Album: Teenage Politics
Tabbed by: Mark McGhee (Chizey@aol.com)
Chords used:
[E] [A] [B] [C#m] [F#m]  
 
 -------------------------------------
 -------------------------------------
 --9-------------------9--------------
 --9-----7----9----11--------4--------
 --7-----7----9----11--------4--------
 --------5----7----9---------2--------

intro
 
 ------------------------------------
 ------------------------------------
 --------------7---------------7-9---
 ------8-8-9-9---9-----8-8-9-9-------
 --7-7-------------7-7---------------
 ------------------------------------
 ------------------------------------
 ------------------------------------
 --------------7---9-7---9-7---9-7---
 ------8-8-9-9---9-----9-----9-------
 --7-7-------------------------------
 ------------------------------------

[E]Everyday I go [A]to school and s[B]tudy hu[C#m]mans
I sit and watch them [A]all go [B]by
[E]Everyday's a new [A]day to [B]study hu[C#m]mans
I sit and observe this [A]girl named [B]Bri with my eye
(fill 1)
(fill 2)
(fill 1)
(fill 2)
[F#m]All those manner[A]isms and the funny things they do (fill 1, fill 2)
[F#m]Humans and their [A]dogmas they defend so selfishly (fill 1, fill 2)
[F#m]I'm planning to [A]take over cause I hate living on the moon (fill 1, fill
[2)]  
[F#m]They won't get [A]suspicious cause the soaps are on at noon (fill 1, fill 2)
fill 1:
 
 ------------------------------
 ------------------------------
 9-9-9-9-----------------6-----
 -----------9-7-9-7-6-7----9---
 ------------------------------
 ------------------------------

fill 2:
 
 --------------------------------------
 --------------------------------------
 -9-9-9-9------------------------------
 ------------9-7-6-7-6----9------------
 -----------------------7--------------
 --------------------------------------

the intro goes in their again. Listen to the song and you'll get
the gereral idea.
questions or comments e-mail me at Chizey@aol.com

Important: The song above is NOT stored on the Chordie server. The original song is hosted at www.christianguitar.org. Chordie works as a search engine and provides on-the-fly formatting. Chordie does not index songs against artists'/composers' will. To remove this song please click here.

Text color:
Chord color:
Chord grids: 
Font size:    
Page size: 

A B C#m E F#m
Rate #1 of 5 versions

Jango Player

Login - add to songbook

SHARE PAGE  



You need to log in to post comments