Guitar Tabs, Chords and Lyrics
Server problems seems to be fixed. Chordie has been experiencing problems with songs disappearing. These issues now seems to be fixed, but still verifying the fix. If you find anything strange, please email admin@chordie.com.


Nail Holes  Black Eyed Sceva

Title: Nailholes
Artist: Black Eyed Sceva
Album: Way Before the Flood
Copyright 1995 Unusual Woody Seedpod Music
Tabbed by Kirk Bozeman (boze@longview.net)
This is pretty much everything you need to know to play this
song.
E-flat tuning
NOTE:
h = hammer on
p = pull off
/ = "slide"
^ = pitch bend
Verse pattern:
 
 ------2-----2p0-------------------3-----------0-
 ----0-----0-------0-----0-------0-----------0---
 ------------------------------0-----------0-----
 --4-----2-------2-----4-------------------------
 --------------4---------------------------------
 --------------------2-----2h3---------3-2------- 

Chorus (and intro) pattern:
 
 ----(12)---0h2-2-2/4-4-0--------0---0-------0-------------
 ----(12)---0---0-0-0-0-0------5---0-----------5-----------
 -----------x---x-x-x-x-x----2-------------2---------------
 -----------2---4-4/6-6(2)-0-------------------------------
 --------------------------------------2-4--------------2--
 -(12)-------------------------------------------0-2^-0-0--
 (12)---0h2-2-2/4-4-0--------0---0---------0---0------------0-------0--
 (12)---0---0-0-0-0-0------5---0---------5--------------3p0---0-3p0----
 -------x---x-x-x-x-x----2------------2---------------0----------------
 -------2---4-4/6-6-2--0-----------------------------------------------
 ----------------------------------2-4-------4------3------------------
 ---------------------------------------------------------------------- 

Bridge: Octave notes (on A and G strings) written only. Mute
the D-string
and strum across all strings. 12 written after an octave
denotes that the
octave is played above the 12th fret.
[D] [F#] [E] [A12] [Ab] [G]  
[D] [F#] [E] [A12] [Ab] [F#]  
[B12] [C#12] [A12] [Ab]  
[D] [F#] [E] [F#] [D] [E] [C#] [D]  
 
 ------------------------------------------------------------------------------

(Verse)
If there's poetry
In God's mystery
It's in the way he reveals
It's in the way he reveals
Himself to me
(Chorus)
(Verse)
So you'll believe when you see
I say you won't see 'til you believe
Thomas said, until I see these hands, the print of the nails
Until I stick my fingers in the print of the nails
I won't believe
(Chorus)
Thomas saw the nailholes
Thomas saw the nailholes
(Bridge)
(Chorus)
Thomas saw the nailholes
Thomas saw the nailholes
(Chorus)
Do we need the nailholes?
Do we need the nailholes?
(Chorus)
I don't need the nailholes
I don't need the nailholes

Important: The song above is NOT stored on the Chordie server. The original song is hosted at www.christianguitar.org. Chordie works as a search engine and provides on-the-fly formatting. Chordie does not index songs against artists'/composers' will. To remove this song please click here.

Text color:
Chord color:
Chord grids: 
Font size:    
Page size: 

A12 Ab B12 C# C#12 D E F# G
Rate #1 of 1 versions

Jango Player

Login - add to songbook

SHARE PAGE  




You need to log in to post comments