Guitar Tabs, Chords and Lyrics
Major upgrade!! After one year development the new version of Chordie is now online! Please give feedback.


Above  Pillar

Song: Above
Tabbed By: Ismael Rios (Guitardude09@aol.com)
This Is my first time ive tabbed out a song and im positive
that i tabbed it out right so here it is its very easy to play.
Intro& Verses: Ska Chords
(listen for changes)
[D] [A] [G] [E]  
 
 ---5--- ---5--- ---3--- ---4---
 ---7--- ---5--- ---3--- ---5---
 ---7--- ---6--- ---4--- ---4---
 ---7--- ---5---

Chorus:
 
 -------------------------------------
 -------------------------------------
 -------------------------------------
 -------------------------------------
 ----7--------------------------------
 ------5-7-4-4-4h5h7p4-4-4-4h5h7p4-5-4 then it goes to A5 after the chorus

riff
then the bridge is just A5,G5,and a C5 sliding back to a B5 with picking the open
e b g strings.
[A5] [G5] [C5] [B5]  
 
 ----- ----- ----- -----
 ----- ----- ----- -----
 ----- ----- ----- -----
 ----- ----- ---5- ---4-
 ---7- ---5- --3-- --2--
 --5-- --3-- ----- -----

There It is Its really easy hope you enjoy it and
have fun and rock for God if you need help or just wanna thank me e-mail me
at Guitardude09@aol.com and remember God gave you a gift to play so
play for him not for man Thnx God Bless...

Important: The song above is NOT stored on the Chordie server. The original song is hosted at www.christianguitar.org. Chordie works as a search engine and provides on-the-fly formatting. Chordie does not index songs against artists'/composers' will. To remove this song please click here.

Text color:
Chord color:
Chord grids: 
Font size:    
Page size: 

A A5 B5 C5 D E G G5
Rate #1 of 1 versions

Jango Player

Login - add to songbook

SHARE PAGE  




You need to log in to post comments