Guitar Tabs, Chords and Lyrics
Major upgrade!! After one year development the new version of Chordie is now online! Please give feedback.


Plastic  Reality Check

CD: Reality Check
C1997 Ariose Music
Tab by Steve Cruickshank
(postlambjam@hotmail.com)
Intro riff 1: 2nd guitar plays octave bends
 
 e---------------------------------------- -------------------
 B---------------------------------------- ---10-----9--------
 G---14---13-----13/14--13-13--14--9------ ---12b14--11b13----
 D---------------------------------------- -------------------
 A---12---11-----11/12--11-11--12--7------ -------------------
 E---------------------------------------- -------------------

----A C#m F#m E A C#m...
Intro riff 2:
 
 e-----------------------------------------------------
 B-----------------------------------------------------
 G--6-7-6-9~~--6-7-6-6-7-6~--6-7-6-9~~--6-7-6-/11~-9---
 D-----------------------------------------------------
 A-----------------------------------------------------
 E-----------------------------------------------------

[---A] [C#m] [F#m] [E] [A] [C#m] [F#m] [E]  
 
 e-----------------------------------------------------
 B-----------------------------------------------------
 G--6-7-6-9~~--6-7-6-6-7-6~--6-7-6-9~~--7-6------------
 D-----------------------------------------------------
 A-----------------------------------------------------
 E-----------------------------------------------------

---A C#m F#m E A C#m F#m...
Verse riff:
 
 e----------------------------------------
 B----------------------------------------
 G---------9--8-------9--6--------9--8----
 D---------7--6-------7-----------7--6----
 A-----------------------4----------------
 E----------------------------------------

Bass: F# A G# F# A G#
Chorus: (with intro riff 2)
(A C#m F#m E) x3
[A] [C#m] [F#]  
Bridge: rap with Eb B F G# progression
 
 e-------------------------------------
 B-------------------------------------
 G---8-8----4-4------------------------
 D---8-8----4-4----3-3----6-6----------
 A---6-6----2-2----3-3----6-6----------
 E-----------------1-1----4-4----------

Chorus: Now with the two octave bends from intro riff 1,
the rest from intro riff 2
Outro:
 
 e---------------------------------------------
 B---------------------------------------------
 G---------------------------------------------
 D---4-------7-------6-------5-----------------
 A---4-------7-------6-------5-----------------
 E---2-2-2-2-5-5-5-5-4-4-4-4-3-3-3-3-----------

(Palm-mute)
 
 e---------------------------------------------
 B---------------------------------------------
 G---------------------------------------------
 D---4-------7-------6-------8----/9-----------
 A---4-------7-------6-------8----/9-----------
 E---2-2-2-2-5-5-5-5-4-4-4-4-6-6-6/7-----------


Important: The song above is NOT stored on the Chordie server. The original song is hosted at www.christianguitar.org. Chordie works as a search engine and provides on-the-fly formatting. Chordie does not index songs against artists'/composers' will. To remove this song please click here.

Text color:
Chord color:
Chord grids: 
Font size:    
Page size: 

A C#m E F# F#m
Rate #1 of 1 versions

Jango Player

Login - add to songbook

SHARE PAGE  




You need to log in to post comments