Guitar Tabs, Chords and Lyrics
Update 25:10. 13:00. Site is back up running again. Songbooks are recovered. Woring on getting search back up..


Waving Goodbye  Bleach

From the album Static
Copyright 1998 Forefront
Tab by Matthew LeCren mtl1@ra.msstate.edu
Verse Progression:
[A] [Dsus2]  
[A] [Dsus2]  
[A] [D]  
[A] [Dsus2]  
[A] [Dsus2]  
[A] [D]  
[A] [Dus2]  
Chorus:
[A] [E] [A]  
[A] [E] [A]  
[A] [E] [F#m] [-] [E] [-] [D]  
Verse
Repeat chorus
Solo 1
 
 E--------------------------------------------------------------------------------------------------------
 B--------------------------------------------------------------------------------10-10-10-10-10-10-10-10-
 G-------6-6h7-6h7-6---6h7-7^-7^-7^-7^-----6h7-6h7-6-10-9-7-----------------------------------------------
 D----7------------------7-----------------------7--------------------------------------------------------
 A--------------------------------------------------------------------------------------------------------
 E--------------------------------------------------------------------------------------------------------
 E----9---9---99--9-9---9---9----------------------------------------------------------------------------
 B-10-10-10-10-10-10-10-10----10-10-10-10-10-10-10-10-----------------------------------------------------
 G--------------------------------------------------------------------------------------------------------
 D--------------------------------------------------------------------------------------------------------
 A--------------------------------------------------------------------------------------------------------
 E--------------------------------------------------------------------------------------------------------

*These are power chords
[A-F#-E-D]  
[F#-A] [E] [F#-E] [A-F#-A]  
[E] [A-F#-A]  
[E] [F#-E-D] [A-F#-A]  
[E] [F#-E] [A-F#-A]  
[E] [A-F#-A]  
[E] [F#-E-D]  
Solo 2
 
 E--------------------------------------------------------------------------------------------------------
 B--------------------------------------------------------------------------------------------------------
 G-------6-6h7-6h7-6---6-6h7 6h7 6---6-6h7-6h7-6----6-6h7-6h7-6---9 (listen to the cd for rhythm)
 D----7-------------------7------------------7-------------------7----------------------------------------
 A--------------------------------------------------------------------------------------------------------
 E--------------------------------------------------------------------------------------------------------

Ok guys I'm really not sure about this part. This is from memory and I
don't have my guitar in front of me so some of these fret positions may
be wrong. But I think they're right. If you find any errors, email me.
 
 E--------------------------------------------------------------------------------------------------------
 B-14-14-14p12--------------------------12\17-15-15-15-14---12h14----17p15----12h14-12^-12^------------
 G-----------------13h14-13h14-13h14----------------------------------------------------------------------
 D--------------------------------------------------------------------------------------------------------
 A--------------------------------------------------------------------------------------------------------
 E--------------------------------------------------------------------------------------------------------
 E--------------------------------------------------------------------------------------------------------
 B-14-14-14p12--------------------------------------------------------------------------------------------
 G----------------13h14-13h14-9h11-9h11-9-9-9-------------------------------------------------------------
 D------------------------------------------------------12-12-12-12-12-11-11-11-11-11-9-7-9-11-----------
 A--------------------------------------------------------------------------------------------------------
 E--------------------------------------------------------------------------------------------------------

Some of this probably isn't 100% correct, but it should be close. This
is my first attempt at writing a tab, so bear with me.
God Bless.

Important: The song above is NOT stored on the Chordie server. The original song is hosted at www.christianguitar.org. Chordie works as a search engine and provides on-the-fly formatting. Chordie does not index songs against artists'/composers' will. To remove this song please click here.

Text color:
Chord color:
Chord grids: 
Font size:    
Page size: 

A D Dsus2 E F#m
Rate #1 of 1 versions

Jango Player

Login - add to songbook

SHARE PAGE  




You need to log in to post comments