Guitar Tabs, Chords and Lyrics
Server problems seems to be fixed. Chordie has been experiencing problems with songs disappearing. These issues now seems to be fixed, but still verifying the fix. If you find anything strange, please email admin@chordie.com.


Version of the Truth  Vigilantes of Love

Capo on second fret (played as if in G, which I guess means it's actually
in B-flat)
[D/F#] [Emin7] [Amin7]  
 
 ----2-------0--------3-----
 ----3-------0--------1-----
 ----2-------0--------2-----
 ----0-------0--------2-----
 ----0-------2--------0-----
 ----2-------0--------0-----

(The opening riff, as I recall - I didn't write this part down but I'm
sure it's close)
[G] [G] [C]  
 
 ------3--------3-------------------------0---------------
 ------0--------0-------------------------1---------------
 ------0--------0--------0-2p0------------0---------------
 ------0--------0-----2----------2--0-0-0-2--2-0----------
 ------2---0h2--2---3---------------------3-----3-2-0-----
 --3---3--------3-------------------------------------3...

[G]Spend your life ... sea[C]rch the world over
[Emin]Jump head first into your [D]savage disorder
[G]Scratch your head after [C]every wrong choice
[Emin]Can lose your life trying to[D] find your voice
[G]On the front porch when the [C]storm came through
[Emin]took down some trees... [D]tore off some roofs
[G]Exposed all my [C]grubby little roots
[Emin]hurricane force ... and the [D]living proof
(Chorus)
[C]Fist too tight ... my [D]tongue too loose
[G]Up on my [D/F#]soap box with my [Emin]poor ex[Emin7]cuse
[C]Everybody's g[Amin]ot their version .[Amin7].. of th[G]e truth
(and it follows the same pattern for the next verse...)
In this record business where there's nothing to regret
Only the sales projections and figures not met
I hear you did something for me long ago
Now what was your name again ... and how much do I owe?

Important: The song above is NOT stored on the Chordie server. The original song is hosted at www.christianguitar.org. Chordie works as a search engine and provides on-the-fly formatting. Chordie does not index songs against artists'/composers' will. To remove this song please click here.

Text color:
Chord color:
Chord grids: 
Font size:    
Page size: 

Amin Amin7 C D D/F# Emin Emin7 G
Rate #1 of 1 versions

Login - add to songbook

SHARE PAGE  



You need to log in to post comments